Oops, an error
Loading. Please wait.

Mis Hojas De Noviembre tab

version 2
version 2
68 views 1 this week
no commentswrite comment
1 2 3 4 5
3 more votes to show rating
add to favorites
×
Save as Personal and add changes to this tab that will be seen only by you. Learn more ›
×
You can save this tab as Personal to edit and correct it or add notes. All changes will be seen only by you. Learn more »
launch autoscroll
font size
0
reset
how to read this tab
guitar tuner
edit
Autoscroll
slow
fast
+/-
esc
set tempo
stop
Esta cancion es muy rapida pero se basa en el intro, asi q aprendanselo y 
utilizen los bajeos correspondientes.

D/F#*   200320
A7sus4  002030
Bm      x24432
Bm/A,Bm/G,Bm/F#,Bm/E: despues de la diagonal indica el bajo, 
el acorde es el mismo solo con cambio de bajeo.
G*      320030
G*/A,G*/F#/G*/E: Igual que los acordes anteriores, 
solo cambia el bajo (recuerden el G*=320030).


          G*       D/F#*               A7sus4              D   
e-------------------------0-------------0-------------0h2p0------
b-----------3------3--------3---------3---------3-----------3----
g---------0---0-------2-------0-----0-----0-------2------------2-
D-----------------------------------------------0----------------
A--------------------------------0-------------------------------
E----3-------------2---------------------------------------------

             G*       D/F#*     A7sus4   D             G*
e-------------0-----------0---------0-------------------0------------
b-----------3--------3------3------3---3---3---3----3-----3----------
g---------0-----0-------2----0---0-------2---2---2----0-----0--------
D--------------------------------------0-----------------------------
A------------------------------0-------------------------------------
E----3---------------2------------------------------3----------------

         D/F#*       D
e-----------0--------0h2p0------
b---------3---3--3--------3-----
g-------0----------2--------2---
D----------------0--------------
A-------------------------------
E-----2-------------------------

            G*    D/F#*            A7sus4        D
e----------0----------0-------------0---------0h2p0------2-
b--------3------3-------3---------3-----3-----------3----3-
g------0----0------2------0-----0-----0---2-----------2----
D---------------------------------------0------------------
A----------------------------0-----------------------------
E----3----------2------------------------------------------

Lleva capo en el tercer traste.

D                 A7sus4          Bm
El mundo visto en tus ojos abiertos
 Bm/A        Bm/G    Bm/F#
tiene un tono descubierto
 Bm/E   Em     A
apenas listo en estos días 
    Riff1
de luz y sol que me deslumbran

D             Bm
que me iluminan y alumbran 
     Bm/A       Bm/G     Bm/F#   Bm/E
y me conceden la dicha de tus ojos 
    Em     A7sus4        D
cuando sé han posado y yo 
           Bm
los quiero tanto 
       Bm/A        Bm/G
como quiero ser tu preso 
       Bm/F#         Riff2  
como quiero darte un beso 

y contagiarte toda mi felicidad 
         D       A7sus4
y que me importa 
      G*        A7sus4    
si ya no te dejo de mirar.

D-D/F#*-G*-D/F#*-A7sus4

D       G*
Ten, mi voz.
    D            G*
mis hojas de noviembre
       D             A7sus4           Riff3
que en mi canción no perseguía otro fin 
     G*              A7sus4            
que comenzar diciendo que hoy 
F#m           Bm
he venido a verte 
   G              A       Riff4
a ver si podía hacerte sonreír.
                  A7sus4     G*   D 
a ver si podía hacerte sonreír.  

Se repite intro

    D          A7sus4           Bm
Quisiera acariciar con mis palabras 
      Bm/A          Bm/G
la tersura de tu espalda
         Bm/F#          Bm/E     Em
y en tus hombros poner un beso 
      A7sus4       Riff1
y un manto de caricias
D        A7sus4          Bm
como el roce de la brisa 
    Bm/A        Bm/G   
y beberme tu sonrisa 
     Bm/F#           Bm/E  Em   A7sus4   D
y agotar tu siempre boca manantial 
        Bm           Bm/A
y acariciarte con mi música
     Bm/G      Bm/F# 
y andarte tarareando 
        Riff2
y aún llevarte como llevo 
      
mi guitarra a donde voy 
          D      G*  
y que me importa
      A7sus4          D   
si ya no te dejo de tocar.

D-D/F#*-G*-D/F#*-A7sus4

D       G*
Ten, mi voz.
    D           G*
mis hojas de noviembre
       D             A7sus4            Riff3
que en mi canción no perseguía otro fin 
     G*           A7sus4            
que continuar diciendo que hoy 
F#m           Bm
he venido a verte 
   G*              A7sus4    Riff4
a ver si podía hacerte sonreír.
                  A7sus4  G*   D
a ver si podía hacerte sonreír.

D-G*-D/F#*-A7sus4-D-G*-D/F#*-A7sus4-Solo-D-G*-D/F*-A7sus4-Solo2-G*-D/F*-A7sus4-D

    D            A7sus4            Bm
Tus manos son la suavidad que extraño
      G*/A      G*
para detener el mundo 
     G*/F#    G*/E     Em      A7sus4
y elevarlo hasta mi boca 
                    riff1
y respirar de su perfume 
D        A             Bm
son las flores de tus brazos 
       G*/A        G*           G*/F#
que detienen los pedazos de mi vida 
             G/E       Em       A7sus4
que hoy se arrastran hasta aquí
       G/B 
para sembrarse 
      G/A       G               G/F#
para crecer y acunarte entre mis ramas 
     G/E   Riff2
y cubrirte de cuidados 
      
ésta vez y para siempre 
         D      G* D/F#*
y que me importa 
      A7sus4                D
si jamás te dejo de abrazar.

D-D/F#*-G*-D/F#*-A7sus4

D       G*
Ten, mi voz.
    D           G*
mis hojas de noviembre
       D             A7sus4            Bm
que en mi canción no perseguía otro fin 
     G*           A7sus4            
que comenzar diciendo que hoy 
F#m           Bm
he venido a verte 
   G*            A7sus4     Riff4
a ver si podía hacerte sonreír.
                 A7sus4     D B7
a ver si podía hacerte sonreír.
   Em            A7sus4       D
a ver si podía hacerte sonreír.

Riff1
        D
|----5--2h3p3-----
|-----------------
|-----------------
|--0--------------
|-----------------
|-----------------
 
Riff2 (Bajos) E F# G A C# D E*(4 cuerda)

Riff3
       Bm
|-------------------2--
|--------2h3p2------3--
|-----4---------4---4---
|----------------------
|--2-------------------
|----------------------

Riff4
   D  Bm  F#m  G*
|--2---2---2---0-----
|--3---3---2---3-----
|--2---4---2---0-----
|--0-----------------
|------2-------------
|----------2---3-----

Solo  Min 2:03 a 2:07
|---------------------------0
|----------0-----------3--0--
|----------------------------
|------------0h2h3h4--0------
|--0h2h3h4-4------------0--0-
|----------------------------

Solo2  Min 2:10
         D
|----0h2p0----0h2p0--
|-------3--------3---
|--------2--------2--
|--0-----------------
|--------------------
|--------------------


Bueno la tablatura esta muy completa, y muy correcta.
Espero que les agrade.

Bueno esta tab de nuevo es dedicada para mi niña favorita: Flor.

            
            
Suggest correction
Creating personal tab
Creating personal tab
You can edit any tab online and save it as your Personal.

You can edit, replace or remove any tab part or add personal notes – all changes will be seen only by you.

Personal tabs can be accessed anytime from any device, even offline.
Learn more »
Give kudos to tab author, rate the tab!
1 2 3 4 5
comments
print report bad tab
guest
Wanna post a correction for this tab? Suggest correction