Oops, an error
Loading. Please wait.

Nimbus tab

version 2
version 2

Whole song

10 views 1 this week
no commentswrite comment
1 2 3 4 5
3 more votes to show rating
add to favorites
×
Save as Personal and add changes to this tab that will be seen only by you. Learn more ›
×
You can save this tab as Personal to edit and correct it or add notes. All changes will be seen only by you. Learn more »
launch autoscroll
font size
0
reset
how to read this tab
guitar tuner
edit
Autoscroll
slow
fast
+/-
esc
set tempo
stop
Aqui pongo este pekeño Tab para que se guien de como se debe de tocar 
exactamente los acordes, para que no se confundan, recuerden que toda 
la cancion es igual, se puede guiar de este tab para tocar los acordes 
que ya hay en las otra trancripciones =)

Saludos

para Mariana =)
     

         
|---------0-------------------0---------4----------------4----------|
|-----0-----0---------------0-------5-----5---5------5-----5---5----|
|---1---------1---2p1-1-2p1-------4---------4------4---------4------|
|-------------------------------------6----------------6------------|
|-------2-----------------------4----------------4------------------|
|-0-------------0---------------------------------------------------|


|-------------0-------------2----------------0---------------------|
|-------0h2p0---0-------0-----0---0------0-----0-------------------|
|-----2-----------2---2---------2------1---------1----2p1-1-2p1----|
|---2---------------------1----------------------------------------|
|-0-----------------2----------------------2-----------------------|
|------------------------------------0-------------0---------------|

Asi esta bien, para quien no lo quiera CREER!
Suggest correction
Creating personal tab
Creating personal tab
You can edit any tab online and save it as your Personal.

You can edit, replace or remove any tab part or add personal notes – all changes will be seen only by you.

Personal tabs can be accessed anytime from any device, even offline.
Learn more »
Give kudos to tab author, rate the tab!
1 2 3 4 5
comments
print report bad tab
guest
Wanna post a correction for this tab? Suggest correction