Oops, an error
Loading. Please wait.

Primeras Impresiones tab

version 1
version 1

Whole song

16 views 3 this week
no commentswrite comment
1 2 3 4 5
3 more votes to show rating
add to favorites
×
Save as Personal and add changes to this tab that will be seen only by you. Learn more ›
×
You can save this tab as Personal to edit and correct it or add notes. All changes will be seen only by you. Learn more »
launch autoscroll
font size
0
reset
how to read this tab
guitar tuner
edit
Autoscroll
slow
fast
+/-
esc
set tempo
stop
Esta rola, no me la pidió nadie ni creo que haya sido solicitada por
alguien en particular, sin embargo, del antigüo repertorio de Fernando
es una de las que más aprecio. Por este motivo la pongo a disposición
de aquellos que son seguidores de Delgadillo de tiempo atrás.

No tuve tiempo de checar el tono correcto de la interpretación pero, si
les acomoda un poco bajo el tono, pueden usar el capo tantos trastes les
soporte el registro de su voz. disfrutenla!


ACORDES:
G      320003
D9/F#  200233
Em     022000
Em/D   020000
C      332010
D      000232
D7     000212
A7     002020
A7/c#  042020
c/B    x20010


INTRO:

     G
   6    1
  \______/
   ||||||
   |2||||
   3||||4
   ||||||

E--3------------------|--3------------------|--3------------------|--3------------------|
A---------------------|---------------------|---------------------|---------------------|
D------0----0---------|------0----0---------|------0----0---------|--------0----0-------|
g------0----0---------|------0----0---------|------0----0---------|--------0----0-------|
b------0h1--1h0-------|------0h1--1h0-------|------0h1--1h0-------|--------0h1--0-------|
e---------------------|---------------------|---------------------|---------------------|


    G       D9/F#    Em
Un amigo me ha insinuado
           C     C/B   A7
que es un sentimiento mas allá
     A7/C#
de estar mal 
          D
o estar bién

     D
   6    1
  \______/
   ||||||
   ||||||
   ||||||
   ||||||

E---------------------|---------------------||
A---------------------|---------------------||
D--0------------------|--------------------*|| 1 o 2 Veces
g-----2------0h2------|--2-----------------*||
b-------3--------3----|-----------3---------||
e---------2-----------|-----3h2-------------||


         C
que ya me iré
         D7
acostumbrando yo
     G
también con cada
 C              D
cambio que vendrá

     D
   6    1
  \______/
   ||||||
   ||||||
   ||||||
   ||||||

E---------------------|---------------------||
A---------------------|---------------------||
D--0------------------|--------------------*|| 1 o 2 Veces
g-----2------0h2------|--2-----------------*||
b-------3--------3----|-----------3---------||
e---------2-----------|-----3h2-------------||


        C         D
Cuando supo la noticia
        G      D9/F#    Em
de que voy a  ser     papá

¡caray!
     D
¡no sé!

          C         
Si he de reir o llorar
        D
o aprender a

cantar nanas
      G
al bebé


     G
   6    1
  \______/
   ||||||
   |2||||
   3||||4
   ||||||

E--3------------------|--3------------------|--3------------------|--3------------------|
A---------------------|---------------------|---------------------|---------------------|
D------0----0---------|------0----0---------|------0----0---------|--------0----0-------|
g------0----0---------|------0----0---------|------0----0---------|--------0----0-------|
b------0h1--1h0-------|------0h1--1h0-------|------0h1--1h0-------|--------0h1--0-------|
e---------------------|---------------------|---------------------|---------------------|


      G       D9/F#
Para ser francos
      Em
hoy puedo decir
C            C/B   A7
  que me ha dado miedo
    A7/C# D 
un  calcetín


     D
   6    1
  \______/
   ||||||
   ||||||
   ||||||
   ||||||

E---------------------|---------------------||
A---------------------|---------------------||
D--0------------------|--------------------*|| 1 o 2 Veces
g-----2------0h2------|--2-----------------*||
b-------3--------3----|-----------3---------||
e---------2-----------|-----3h2-------------||


      C        D
Demasiado diminuto
         G       D9/F#   Em
para que alguien calce así
             C          D7
que me horroriza una camisa
      G    D9/F#  Em
de ratones con botones


           C 
que creo que voy a ir a dar
           A7
en menos tiempo
         A7/C#
que de prisa
      D
a la casa de la risa


        G    D9/F#
Que no sé resistir
Em         D
la curiosidad
      C            D
de mirar sueños lejanos
        G     D9/F# Em
que te tomen de la mano
         C
que confíen en tí
    D          G
y que digan papá

 D9/F#  Em
da ran dan darán
  Em/D     C   D7  G  
da ra ran dan


Que se diviertan...!
Saludox!

            
            
Suggest correction
Creating personal tab
Creating personal tab
You can edit any tab online and save it as your Personal.

You can edit, replace or remove any tab part or add personal notes – all changes will be seen only by you.

Personal tabs can be accessed anytime from any device, even offline.
Learn more »
Give kudos to tab author, rate the tab!
1 2 3 4 5
comments
print report bad tab
guest
Wanna post a correction for this tab? Suggest correction