Oops, an error
Loading. Please wait.

Tu Prisa tab

version 1
version 1

Whole song

59 views 1 this week
no commentswrite comment
1 2 3 4 5
3 more votes to show rating
add to favorites
×
Save as Personal and add changes to this tab that will be seen only by you. Learn more ›
×
You can save this tab as Personal to edit and correct it or add notes. All changes will be seen only by you. Learn more »
launch autoscroll
font size
0
reset
how to read this tab
guitar tuner
edit
Autoscroll
slow
fast
+/-
esc
set tempo
stop
ESTA CANCION ES MUY BUENA Y ES COMO VIENE EN EL CD , CAMPO DE SUEÑOS, EL SOLO SE VE DIFICIL,PERO
ENVERDAD ES MUY FACIL SOLO ES PARTE DE LA ESCALA DE SOL BUENO AQUI ESTA PARA QUE LA CHEQUEN:


GTR I
     G  Am7  D7sus4  D9sus4/E       |G Am7  D7sus4 D7 |
                                ? empieza solo GTRA II


GTR II

 e |---------------------------------------------------------------------------------10--------
 B |-------------------------------------------------------8------10--10-8--8--10/12-----15\12-
 G |-------------------------------------------------7--9------9-------------------------------
 D |------5--7/8\7--7--5-----5--7--5----------5--7/9-------------------------------------------
 A |-5--7-----------------7-------------5--7---------------------------------------------------
 E |-------------------------------------------------------------------------------------------

-----------------------------------------------------------------------------------------------
----12------------------------------------------------------------------------------------------
14------14--12--14--12------12-----------------------------------------------------------------
------------------------14------14--12--14--12------12-----------------------------------------
------------------------------------------------14------14--12--14--12------12-------------5---
------------------------------------------------------------------------15------12---5--7-----5

----------------------------------------------------------------------------------------10------
-------------------------------------------8-8/5-8/5-8/5-8/5--10--10/12\10------10--12------12--
----------------------------------------------------------------------------12------------------
--------------5-----7--7--5-------------7-------------------------------------------------------
--------5--7-----7-----------5----5--7----------------------------------------------------------
--5--7------------------------------------------------------------------------------------------

10/12----------10/12------10----------|
-------10--12---------12------12--10--|
--------------------------------------|
--------------------------------------|
--------------------------------------|
--------------------------------------|


GTR I

  G
No pude mirar en tus ojos ayer
   D
estabas tan lejos, no había que decirlo
     Am7
Tu prisa era un ave queriendo volver
     C                    D7/F#
y dejar cielo atrás, los ratos vividos.

    G
Con una mirada me diste a entender y aunque
  D
    ya me avisabas que te había perdido
    Am7
tu boca mintiéndome, un beso, dos ojos
        C               D7/F#
que hubiera cerrado de no haber notado

      G                      D
Tu prisa... esa tu ansiosa prisa
             Am7
a donde te insita volver
                    C
a donde te tiene sujeta
              D7/F#               G
que no te permite dejarte volver

                  D
¿ A dónde van tus alas?
                   Am7                     C
esas alas que no acaban de llenarse de mañana
             D7/F#              G   D   Am7   C   D7/F#
y te urgen siempre a continuar__tarará rara___

    G
Mentira que dude y que no quiera ver
         D
Que el tiempo es el tiempo y palabras eternas
    Am7
Se van como a veces llegan a venir
      C                     D7/F#
a la par del delirio que insiste en tus piernas

  G
Así te mantengo en la mente y te se
    D
buscando mi boca y juntando tu cuerpo
      Am7
no quiero pensar que te vuelvo a tener
     C                   D7/F#
atrapada en la luz, humedad de un recuerdo

      G                       D
Con prisa... esa tu ansiosa prisa
                        Am7
a donde te insita a volver
                  C
donde te tiene sujeta
              D7/F#               G
que no te permite dejarte volver

                       D
¿ Qué viento abrió tus alas?
                Am7
de gaviota demorada
                      C          D7/F#                 G Fsus4 C D
tras el ruego que no basta para detenerte mas tararara

          Am7
Hoy ya no pude ver en tus ojos ayer
        D7sus4
que el mundo siempre tiene tanto que no has visto
    D9sus4/E
las aves se marchan y el viento otra vez
                                                                        C9
te agita el cabello y te vuelve a invitarlo a probar
                 Fsus4           C         G  Am7  D7sus4  D9sus4/E
como brisa fresca de tu sonrisa fugaz.. uh uh uh...

G  Am7  D7sus4  D9sus4/E
G  Am7  D7sus4  D9sus4/E
G

LOS ACORDES SON

G:       320033
Am7:     X02013
D7sus4:  XX0213
D9sus4/E:0xxx13
D7:      000212
D:       000232
D7/F#:   200212
Fsus4:   133311
C9:      032030
Asus4:   X02230

            
            
Suggest correction
Creating personal tab
Creating personal tab
You can edit any tab online and save it as your Personal.

You can edit, replace or remove any tab part or add personal notes – all changes will be seen only by you.

Personal tabs can be accessed anytime from any device, even offline.
Learn more »
Give kudos to tab author, rate the tab!
1 2 3 4 5
comments
print report bad tab
guest
Wanna post a correction for this tab? Suggest correction