Oops, an error
Loading. Please wait.

Estudio 6 Tab

4,723 views 1 this week
2 commentsread comments
1 2 3 4 5
x 4
add to favorites
×
Save as Personal and add changes to this tab that will be seen only by you. Learn more ›
×
You can save this tab as Personal to edit and correct it or add notes. All changes will be seen only by you. Learn more »
save as personal
new!
launch autoscroll
font size
0
reset
how to read this tab
guitar tuner
Autoscroll
slow
fast
+/-
esc
set tempo
stop
#----------------------------------PLEASE NOTE---------------------------------#
#This file is the author's own work and represents their interpretation of the #
#song. You may only use this file for private study, scholarship, or research. #
#------------------------------------------------------------------------------##

			Estudio 6
			---------
		      (Fernando Sor)


----|-2-----2-0-----0-|-------2-------2---------|---------0-------|------|
----|-----------------|-3-----------------------|-0-----0-------3-|------|
--2-|-----2-------0---|---------2-------2-----2-|-----0-----------|------|
----|---0-------------|-----4-------4-------4---|-------------2---|------|
----|-----------0-----|---5-------5-------5-----|-----------------|------|
----|-----------------|-------------------------|---3-------4-----|------|


-----------------|-2-----2-0-----0-|-----------------|-0-------------0-|------|
-3-----2-5-------|-----------------|-3-----3-4-----4-|-------0-2-------|------|
---------------2-|-----2-------0---|-----------------|-----0-------0---|------|
-----2-------2---|-----------------|-----4-------4---|-----2-------2---|------|
---0-------0-----|---5-------0-----|---2-------0-----|-----------0-----|------|
-----------------|-----------------|-----------------|---3-------------|------|


-----------------|-----------------|-----------------|---------------0-|------|
-3-------------7-|-5-----5-4-----4-|-5-----5-2-----2-|-3-----3-0-------|------|
-----2-----------|-----2-------2---|-----2-------2---|-------------1---|------|
-4-----4---------|-----------------|-----------------|-----4-----2-----|------|
---5-----5-------|---4-------3-----|---4-------0-----|---2-------------|------|
-----------------|-----------------|-----------------|-----------------|------|


---------------0-|-0-----0-1-----0-|-2-----2---------|-----------------|------|
-3-------3-------|-----------------|---------0-----1-|-2-----2-3---0-0-|------|
-----1---2-------|-----2-------2---|-----2-------2---|-----2---------1-|------|
---2---2---2-----|-----------------|---0-------1-----|---2-------2-----|------|
-------------0---|---4-------4-----|-----------------|-----------------|------|
-----------------|-----------------|-----------------|---------0-------|------|


------------------|-------------------|---------2-----2-|-3-----3---------|---|
-2-------------10-|-10-----10-1-----1-|-0-----0---------|-----------------|---|
---2--------------|---------------2---|-----2-------2---|-----0---3-----3-|---|
-----2------------|------7------2-----|---1-------1-----|---2---------5---|---|
-0-----4-0--------|----9--------------|-----------------|-----------5-----|---|
------------------|-------------------|-----------------|-----------------|---|


---------0-----0-|-1-------------0-|-------0-1-----0-|---------0-----0-|------|
-----------------|-------3-2-------|-3---------------|-3-----3---------|------|
-2-----2-----0---|-------------0---|-----2-------2---|-----2-------1---|------|
-----5-----------|---0-3-----2-----|---3-------0-----|-----------------|------|
---4-------4-----|-----------------|-----------------|---1-------1-----|------|
-----------------|-----------------|-----------------|-----------------|------|


-----------------|-2-----2-0-----0-|-------2---------|---------0-------|------|
-2---------------|-----------------|-3-------------3-|-0-----0-------3-|------|
-----2---------2-|-----2-------0---|---------2-------|-----0-----------|------|
-------2---2-----|---0-------------|-----4-------4---|-------------2---|------|
---0-----4---0---|-----------0-----|---5-------5-----|-----------------|------|
-----------------|-----------------|-----------------|---3-------4-----|------|

                          P
-----------------|-2-----3-2-0------P--|---------0-----2-0---|---------------|
-3-----2-5-------|-----------------7-5-|-------0-----0-----3-|-----3-2-----2-|
---------------2-|-----2---------0-----|-7-------0-----------|---2-------0---|
-----2-------2---|---------------------|-----4---------------|---4-------2---|
---0-------0-----|---5-----------------|---------------------|-0-------0-----|
-----------------|-------------6-------|---7-------0-3-------|---------------|


-----------||
-3---------||
-----2-----||
-4-----4---||
---5-----5-||
-----------||
Suggest correction
comments
print report bad tab
2 comments total.
0 reply
ae_doomsday 10 Jun 21, 2010 06:44 PM

this is really good stuff.. so under rated though

0 reply
jengy 10 Sep 17, 2013 02:31 AM

aka op35 no.17

1st line is
----|-2-----2-0-----0-|-------2---------|---------0-------|
----|-----------------|-3---------------|-0-----0-------3-|
--2-|-----2-------0---|---------2-----2-|-----0-----------|
----|---0-------------|-----4-------4---|-------------2---|
----|-----------0-----|---5-------5-----|-----------------|
----|-----------------|-----------------|---3-------4-----|

penultimate line
p p
-----------------|-2-----320------P-|---------0-----20|----------------|
-3-----2-5-------|----------------75|-------0-----0---|3-----3-2-----2-|
---------------2-|-----2--------0---|-7-------0-------|----2-------0---|
-----2-------2---|------------------|-----4-----------|----4-------2---|
---0-------0-----|---5--------------|-----------------|--0-------0-----|
-----------------|------------6-----|---7-------0-3---|----------------|

guest
Wanna post a correction for this tab? Suggest correction