Oops, an error
Loading. Please wait.

Moderato In C Tab

1,414 views 3 this week
no commentswrite comment
1 2 3 4 5
2 more votes to show rating
add to favorites
launch autoscroll
font size
0
reset
how to read this tab
guitar tuner
×
Best way to learn
"Moderato In C"
Autoscroll
slow
fast
+/-
esc
set tempo
stop
Moderato in C - Fernanado Sor

3/4 time

Quite easy but take time with open fingering.

i - index finger
m - middle finger
a - ring finger


e ---0---------------1----------0-----0-3-1----------0-|
B -----1--1-0-1--3-----3-3-1-3------1--------3-0-1-----|
G -0---------------0--------------0----------------0---|
D -----------------------------------------------------|
A -----------------------------------------------------|
E -----------------------------------------------------|
   i a m  i m i  m i a m i m i  m i m a m i  m i m i a


e -------------0---------------1-----------0-----0-3-1-|
B -2-3-1-0-------1-1--0-1--3-----3-3--1-3------1-------|
G ---------2-0---------------0---------------0---------|
D -----------------------------------------------------|
A -----------------------------------------------------|
E -----------------------------------------------------|
   m i m i m i a m i  m i  m i a m i  m i  m i m a m m


e -------0---------------------------------3-2-1-0-----|
B -3-1-----3-0-1----0---3-1---------1-0------------1---|
G -----0--------------0------2----2------0-----------2-|
D -----------------------------0-----------------------|
A ----------------3------------------------------------|
E -----------------------------------------------------|
   i m i a m i m    m i m m  i    i m i    m i m a m i


e --------------------------0---1-0---------------------|
B -0---3-1-0--------0-3---1---------3-2-3-0-----0-1-3---|
G -----------0----0-----0-----0-------------0-0-------0-|
D ---0--------------------------------------------------|
A --------------0---------------------------------------|
E ------------------------------------------------------|
   m   m m i m      i m   i m   i m i m i m i   i m i


e -----0-----1-0--------0-----------1-0----------3-1--0-|
B -1-3-----3-----1-3------3-1-0---------3-1--0----------|
G -------0------------0---------1-2------------0--------|
D ------------------------------------------------------|
A ----------------------------------------------------3-|
E ------------------------------------------------------|
   i m i   i m i m i    m i m i m i m i m i  m   m i  m


e --------------------|
B -0-1-3---0--1-------|
G -------2-0----------|
D -0-2-3--------------|
A ------------3-------|
E --------------------|
   m m m i m  m


Comments and goodness: fornicular@hotmail.com
Suggest correction
Give kudos to tab author, rate the tab!
1 2 3 4 5
comments
print report bad tab
guest
You may want to rate the tab now too:
select rating
Wanna post a correction for this tab? Suggest correction