Oops, an error
Loading. Please wait.

No Me Dejan Verla tab

version 1
version 1

Whole song

23 views 1 this week
no commentswrite comment
1 2 3 4 5
3 more votes to show rating
add to favorites
×
Save as Personal and add changes to this tab that will be seen only by you. Learn more ›
×
You can save this tab as Personal to edit and correct it or add notes. All changes will be seen only by you. Learn more »
launch autoscroll
font size
0
reset
how to read this tab
guitar tuner
edit
Autoscroll
slow
fast
+/-
esc
set tempo
stop
Dedicado para todos los amantes de a bachata Dominicana

Hecho por: Darwing (El Blof)

INTRO   (E) (C#m) (A) (B) x2

             (E)                 (C#m)
E------------------------------------------------
a------------------------------------------------
d------------------------------------------------
g------------------------------------------------
b------------------------------------------------
e----16-14-12-14-12/14-12----16-14-12-14-12/14-12
             (A)                  (B)
E---------------------------------------------------
a---------------------------------------------------
d---------------------------------------------------
g----------------------14---------------------------
b-------------------14----14----------12------------
e-----16-14-12-14-------------12-11-------11-14-12--
             (E)
E--------------------------------------------------
a--------------------------------------------------
d--------------------------------------------------
g--------------------------------------------------
b--------------------------------------------------
e-----16-14-12-14-12/14-12-------------------------

             Verso I


 (E)                     (C#m)
Paso por su casa a cada instante a cada hora
 (A)                     (B)
A ver si consigo tan siquiera a ver su sombra
 (E)                     (C#m)
Pero es imposible no me dejan acercarme
 (A)                     (B)
Es una princesa yo para todos un donadie

Dicen que yo soy un pobre diablo sin futuro,
Que no puedo darle ni un pedazo de pan duro
Y que mis modales son de un simple vagabundo
Que a mi lado no tendría ni un techo seguro

Su familia piensa que la puede es el dinero
Y que la fachada identifica a un caballero
Por eso no quieren que bajo ningún concepto
Se me ocurra nunca hablarle de mis sentimientos

            Coro I

             (E)              (C#m)
No me dejan verla, sueño con tenerla
             (A)              (B)                 (E)
Y darle la riqueza más bella del mundo que es mi alma entera

 (E)         (E)              (C#m)
No me dejan verla, deliro por ella
               (A)             (B)               (E)
Fallan cuando juzgan un amor sincero, por las apariencias
(E).............
No me dejan verla

Su familia piensa que la puede es el dinero
Y que la fachada identifica a un caballero
Por eso no quieren que bajo ningún concepto
Se me ocurra nunca hablarle de mis sentimientos

No me dejan verla, sueño con tenerla
 Y darle la riqueza más bella del mundo que es mi alma entera
No me dejan verla, deliro por ella
      Fallan cuando juzgan un amor sincero, por las apariencias
No me dejan verla.

            
            
Suggest correction
Creating personal tab
Creating personal tab
You can edit any tab online and save it as your Personal.

You can edit, replace or remove any tab part or add personal notes – all changes will be seen only by you.

Personal tabs can be accessed anytime from any device, even offline.
Learn more »
Give kudos to tab author, rate the tab!
1 2 3 4 5
comments
print report bad tab
guest
Wanna post a correction for this tab? Suggest correction