Oops, an error
Loading. Please wait.

No Te Quiero Olvidar tab

version 1
version 1

Whole song

53 views 1 this week
no commentswrite comment
1 2 3 4 5
3 more votes to show rating
add to favorites
×
Save as Personal and add changes to this tab that will be seen only by you. Learn more ›
×
You can save this tab as Personal to edit and correct it or add notes. All changes will be seen only by you. Learn more »
launch autoscroll
font size
0
reset
how to read this tab
guitar tuner
edit
Autoscroll
slow
fast
+/-
esc
set tempo
stop
Fernando & Juan Carlos tienen muchas canción 
que son excelentes en cuanto a la letra y la música, 
aunque yo no soy muy admirador de la música romántica  
considero que las canciones de Fernando & Juan Carlos 
son o eran realmente buenas no solo de letra sino musicalmente.

INTRO

|-----------------------------------------------------|
|-----------------------------------------------------|
|-0-----------0--------------0-----------0------------|
|---2-------2---2----------2---2-------2---2--------2-|
|-----3---3-------3------3-------3---3-------3-----3--|
|-------2-----------2-3h2----------2-----------2-3h2--|


VERSO 1

  D            G      D     
|--------------3-----------------------------------|
|--------------------------------------------------|
|-0-------------------0-----------0----------------|
|---2-------2------0------2-----2---2----------2---|
|-----3---3------3------3-----3-------3------3-----|
|-------2------3------2-----2-----------2-3h2------|
 Cuando nadie se acerca

  D             G      A  
|---------------3--------------------------------|
|----------------------0------------0------------|
|-0------------------------2---------------------|
|---2-------2-------0----2-------2-----2-------2-|
|-----3---3-------3----2-------2---------2---2---|
|-------2-------3------------0-------------0-----|
 Y la noche se apaga todo

  G            A            Bm           A G
|-3----------------------------------------3------------|
|--------------0-------------2-----------0--------------|
|------------------2-----------4------------------------|
|-----0-----0----2--------2------4-----------0-------0--|
|---3-----3----2--------2----3--------3--2-3---3---3----|
|-3-----3-------------0-------------2------------3------|
 Una brisa me lleva a ti, en silencio te veo dormir  

  G              A              
|-3---------------------------------------|
|----------------0------------0-----------|
|-----------------------------------------|
|---0-------0------2-------2----2-------2-|
|-----3---3------2---2---2--------2---2---|
|-------3--------------0------------0-----|
 Me pregunto que soñarás,  que sentirás


VERSO 2
D              G  D   Dsus4 D               G     A
  Y quisiera besarte,        y decirte que aún te amo 
G                A               Bm       A  G 
  Pero nada es igual ayer, que difícil es volverte a ver
                 A
  De que sirve pedir perdón, sin no hay razón


PRE-CORO

       Bm        A G
Ese es mi dolor 
        A       Bm            A G
Que me ahoga si tú no estás
       A          Bm       A G 
Y me obliga a llorar así

CORO
          A            D            G        
Que es mejor que olvidar ohh... no no
          A        D            G
No te quiero olvidar ohh... no no
          A      D            G
No te quiero dejar ohh... no no 
      A      Bm           A G
Y por eso te canto amor 
          A            D             G
que es mejor que olvidar  ohh... no no  

Bm  A


VERSO 3

D                   G      D    Dsus4 D                  G    A
  Tu me pides que no hable así,         son palabras que te lastiman
G                   A               Bm        A G 
  Que prefieres no recordar, con el tiempo todo va a pasar
                    A
  Que me calle si te ame en verdad, callar es amar


PRE-CORO 
       Bm          A G
Aunque duela más 
       A        Bm        A G
aunque queme la soledad
       A       Bm       A G
Aunque viva muriéndome  


CORO
          A            D            G        
Que es mejor que olvidar ohh... no no
          A        D            G
No te quiero olvidar ohh... no no
          A      D            G
No te quiero dejar ohh... no no 
      A       Bm          A G
Y lo mismo me da morir 
          A            D              G
que empezarte  que olvidar  ohh... no no  
          A      D            G
No te quiero dejar ohh... no no
          A        D            G
No te quiero olvidar ohh... no no 
      A       Bm          A G
Y por eso te canto amor 
          A            D             G
que es mejor que  olvidar  ohh... no no  


OUTRO

|-3---2---0---0-|
|-2---0---0---0-|
|-0---0---2---0-|
|-0---0---2---2-|
|-3---3---2---3-|
|-3---0---0---2-|

Gracias
Suggest correction
Creating personal tab
Creating personal tab
You can edit any tab online and save it as your Personal.

You can edit, replace or remove any tab part or add personal notes – all changes will be seen only by you.

Personal tabs can be accessed anytime from any device, even offline.
Learn more »
Give kudos to tab author, rate the tab!
1 2 3 4 5
comments
print report bad tab
guest
Wanna post a correction for this tab? Suggest correction