Oops, an error
Loading. Please wait.

Cadenas tab

version 2
version 2

Whole song

41 views 1 this week
no commentswrite comment
1 2 3 4 5
3 more votes to show rating
add to favorites
×
Save as Personal and add changes to this tab that will be seen only by you. Learn more ›
×
You can save this tab as Personal to edit and correct it or add notes. All changes will be seen only by you. Learn more »
launch autoscroll
font size
0
reset
how to read this tab
guitar tuner
edit
Autoscroll
slow
fast
+/-
esc
set tempo
stop
INTRO:
E|----------------------|------|
B|----------------------|------|
G|---------------X4-----|------|
D|----------------------|-2222-|
A|----------------------|-2222-|
E|-0-00-2-22-1-11-44-33-|-0000-|

E5      F#5    F5        G#5 G5
En este mundo te espera la muerte
E5        F#5        F5       G#5 G5
la muerte se esconde detrás de la gente
E5        F#5      F5        G#5 G5
la gente se deja llevar por la mente
E5        F#5      F5        G#5 G5     E5
la mente de muerte, la muerte demente.


E5        F#5      F5        G#5 G5
Demensia absoluta con arma asesina
E5        F#5     F5      G#5 G5
arma asesina te corta la vida
E5        F#5      F5        G#5 G5
la vida que lleva la cruz con ansias
E5         F#5      F5        G#5 G5      E5
las ansias que llevan la cruz en el caos


La muerte te lleva al instante...
E|-------------------------------------|
B|---------------------------------X4--|
G|-------------------------------------|
D|-------------------------------------|
A|---------------8-7---------------5-7-|
E|-5-7-8-5p7p8-7-----5-7-8-5p7p8-7-----|

E|---------------------|
B|---------------------|
G|------5555-10-9-10-9-| X4
D|-7777-5555-10-9-10-9-|
A|-7777-3333-8--7-8--7-|
E|-5555----------------|


Violín                       Guitarra
E|--------------------------|--------------------------------------------|
B|--------------------------|--------------------------------------------|
G|-12----11-----10-----9----|-9-10-11-12-9-10-11-12-9-10-11-12-9-10-11-9-| x4
D|--------------------------|--------------------------------------------|
A|--------------------------|--------------------------------------------|
E|--------------------------|--------------------------------------------|

A5            C5   F5 E5 F5 E5
La muerte te lleva al instante
A5            C5     F5 E5 F5 E5
el instante te lleva al error
A5            C5   F5 E5 F5 E5
el error del mundo que se une
A5            C5   F5 E5 F5 E5
se une para vernos destruidos

E|-------------------------------------|
B|---------------------------------X4--|
G|-------------------------------------|
D|-------------------------------------|
A|---------------8-7---------------5-7-|
E|-5-7-8-5p7p8-7-----5-7-8-5p7p8-7-----|


ACORDES:
E|--x---x---x---x---x---|--X---X---X---X--|
B|--x---x---x---x---x---|--X---X---X---X--|
G|--x---x---x---x---x---|--X---5---9---10-|
D|--2---4---3---6---5---|--7---5---9---10-|
A|--2---4---3---6---5---|--7---3---7---8--|
E|--0---2---1---4---3---|--5---X---X---X--|
    E5  B5  F5 G#5  G5     A5  C5  E5  F5

            
            
Suggest correction
Creating personal tab
Creating personal tab
You can edit any tab online and save it as your Personal.

You can edit, replace or remove any tab part or add personal notes – all changes will be seen only by you.

Personal tabs can be accessed anytime from any device, even offline.
Learn more »
Give kudos to tab author, rate the tab!
1 2 3 4 5
comments
print report bad tab
guest
Wanna post a correction for this tab? Suggest correction