Oops, an error
Loading. Please wait.

679 tab

version 1
version 1

Whole song

Interactive

15,181 views 15 this week
2 commentsread comments
1 2 3 4 5
x 5
add to favorites
×
Save as Personal and add changes to this tab that will be seen only by you. Learn more ›
×
You can save this tab as Personal to edit and correct it or add notes. All changes will be seen only by you. Learn more »
launch autoscroll
font size
0
reset
how to read this tab
guitar tuner
edit
Autoscroll
slow
fast
+/-
esc
set tempo
stop
Author
Difficulty
intermediate
-------------------------------------------------------------------------------
                             679 - Fetty Wap (Acoustic)
-------------------------------------------------------------------------------
Tabbed by: Jordan B.
E-mail: jorbanb@gmail.com

Our cover:
https://www.youtube.com/watch?v=k5SRB1gHknM

Tuning: Standard

[Intro]
e|---------------------------------------------------------------------------|
B|---------------------------------------------------------------------------|
G|---------------------------------------------------------------------------|
D|---------------------------------------------------------------------------|
A|-----------------------------------2----2--2----2----5----9----------------|
E|-----3----3--3----3-----2-----2--------------------------------------------|

[Verse and Chorus]
e|---------------------------------------------------------------------------|
B|---------------------------------------------------------------------------|
G|-----------------------------------4----4--4----4----7----7-(11)-----------|
D|-----5----5--5----5-----4-----4----4----4--4----4----7----7-(11)-----------|
A|-----5----5--5----5-----4-----4----2----2--2----2----5----5-(9)------------|
E|-----3----3--3----3-----2-----2--------------------------------------------|


************************************

| (n)  Ghost note

************************************

            
            
Suggest correction
Creating personal tab
Creating personal tab
You can edit any tab online and save it as your Personal.

You can edit, replace or remove any tab part or add personal notes – all changes will be seen only by you.

Personal tabs can be accessed anytime from any device, even offline.
Learn more »
comments
print report bad tab
2 comments total.
+1 reply
wazu_492000 42 Oct 01, 2015 12:19 PM

Nice tab and video!!! One small comment is i find it easier to play a 4 on the d string instead of a 9 on the a string anyways thanks for posting

guest
You may want to rate the tab now too:
select rating
Wanna post a correction for this tab? Suggest correction