Oops, an error
Loading. Please wait.

Am Feuer tab

version 2
version 2

Whole song

1,168 views 18 this week
no commentswrite comment
1 2 3 4 5
x 4
add to favorites
×
Save as Personal and add changes to this tab that will be seen only by you. Learn more ›
×
You can save this tab as Personal to edit and correct it or add notes. All changes will be seen only by you. Learn more »
launch autoscroll
font size
0
reset
how to read this tab
guitar tuner
edit
Autoscroll
slow
fast
+/-
esc
set tempo
stop
Author
Difficulty
This is the actuall version of the song. The original version was totally wrong.
This version is 100% accurate. Tabbed by cdizzle2 from reddit. Many thanks to him!


(0:00 – 0:05)
e-------------------------------------------------------------------|
b-------------------------------------------------------------------|
g--------------------------0-------------------------------------0--|
d---------------------0----------------0-------------------2--------|
a-----------------2----------------0------------------2-------------|
e---0---2---3----------------2------------3----0--------------------|


(0:06 – 0:11)
e---------------------------------------------------------------------------|
b---------------------------------------------------------------------------|
g--------------------------0-------------------------------------0----------|
d---------------------0----------------0-------------------2-------------2--|
a-----------------2----------------0------------------2---------------------|
e---0---2---3----------------2------------3----0----------------------------|


(0:11 – 0:17)
e------------------------------------------------------------------------------------|
b--------------------------0-----------------------------------1--------0------------|
g----------------------0----------------0-----------------2------------------2-------|
d-----------------2-----------------0----------------2----------------------------2--|
a---0---2---3-----------------2------------3---0-------------------------------------|
e------------------------------------------------------------------------------------|


(0:17 – 0:25)
e------------------------------------------------------------------------------------------------------|
b--------------------0---------------------------------------------------------------------------------|
g---------------0--------------------0------------------0----------------------------------------------|
d---------2--------------------0-------------------4--------4-------------4----7----5----4h5p4---------|
a----3--------------------2--------------3----5---------------------5-------------------------------5--|
e------------------------------------------------------------------------------------------------------|


(0:27 – 0:31)
e-------------------------------------------------------------------|
b-------------------------------------------------------------------|
g--------------------------0-------------------------------------0--|
d---------------------0----------------0-------------------2--------|
a-----------------2----------------0------------------2-------------|
e---0---2---3----------------2------------3----0--------------------|


(0:31 – 0:37)
e---------------------------------------------------------------------------|
b---------------------------------------------------------------------------|
g--------------------------0-------------------------------------0----------|
d---------------------0----------------0-------------------2-------------2--|
a-----------------2----------------0------------------2---------------------|
e---0---2---3----------------2------------3----0----------------------------|


(0:37 – 0:43)
e------------------------------------------------------------------------------------|
b--------------------------0-----------------------------------1--------0------------|
g----------------------0----------------0-----------------2------------------2-------|
d-----------------2-----------------0----------------2----------------------------2--|
a---0---2---3-----------------2------------3---0-------------------------------------|
e------------------------------------------------------------------------------------|


(0:43 – 0:52)
e-------------------------------------------------------------------------------------------------------|
b--------------------0----------------------------------------------------------------------------------|
g---------------0--------------------0------------------0-----------------------------------------------|
d---------2--------------------0-------------------4--------4-------------4----7----5----4h5p4----------|
a----3--------------------2--------------3----5---------------------5--------------------------------5--|
e-------------------------------------------------------------------------------------------------------|

Everything is repeated during the singing except for one minor part, which ill show below.

(1:00 – 1:02)
e------------------------------------------------------------------------------------|
b------------------------------------------------------------------------------------|
g-------------------------------0----------------------------------------------------|
d------------0-----------------2-----------------------------------------------------|
a--------0----------------2----------------------------------------------------------|
e---2------------3---0---------------------------------------------------------------|

(1:33 – 1:36) *Very small change here, he hits A twice instead of  A, E.
e-------------------------------------|
b------------------1------0-----------|
g-------------2----------------2---2--|
d--------2----------------------------|
a---0---------------------------------|
e-------------------------------------|


Chorus


(1:46 – 1:50)
e----------------------------------------------------------------------------------------|
b----------------------------------------------------------------------------------------|
g-----------------------------------------------------------0----------------------------|
d------------0-------------------0--------------2----------------------------------------|
a--------2------2------------0-----0-------2------2--------------------------------------|
e----3--------------3----2--------------0-------------0----------------------------------|


 (1:50 – 1:56)
e----------------------------------------------------------------------------|
b----------------------------------------------------------------1---0-------|
g--------------------0----------------0-------------2-------------------2----|
d-----------------2----2---------0------0------2-----2--------------------2--|
a----0---2---3-----------3--2--------------0------------0--------------------|
e----------------------------------------------------------------------------|


(1:56 – 2:01)
e----------------------------------------------------------------------------------------|
b----------------------------------------------------------------------------------------|
g-----------------------------------------------------------0----------------------------|
d------------0-------------------0--------------2----------------------------------------|
a--------2------2------------0-----0-------2------2--------------------------------------|
e----3--------------3----2--------------0-------------0----------------------------------|


(2:01 – 2:09)
e------------------------------------------------------------------------------------|
b------------------------------------------------------------------------------------|
g--------------------0-----------------0-------------0-------------------------------|
d-----------------2----2----------0--------------4----4-----7---5---4h5p4------------|
a----0---2---3-----------3---2----------3---5----------5----------------------7---5--|
e------------------------------------------------------------------------------------|
Suggest correction
Creating personal tab
Creating personal tab
You can edit any tab online and save it as your Personal.

You can edit, replace or remove any tab part or add personal notes – all changes will be seen only by you.

Personal tabs can be accessed anytime from any device, even offline.
Learn more »
comments
print report bad tab
guest
You may want to rate the tab now too:
select rating
Wanna post a correction for this tab? Suggest correction