Oops, an error
Loading. Please wait.

Auf Wiedersehn tab

872 views 1 this week
no commentswrite comment
1 2 3 4 5
3 more votes to show rating
add to favorites
×
Save as Personal and add changes to this tab that will be seen only by you. Learn more ›
×
You can save this tab as Personal to edit and correct it or add notes. All changes will be seen only by you. Learn more »
launch autoscroll
font size
0
reset
how to read this tab
guitar tuner
edit
Autoscroll
slow
fast
+/-
esc
set tempo
stop
Author
Difficulty




 G                  D                   Em                   C
----------------------------------------------------------------------------------------------------
-------3---3---------------3---3---------------0---0---------------1---1----------------------------
---------0---0---------------2---2---------------0---0---------------0---0--------------------------
----------------------0--------------------2-------------------2------------------------------------
----2---------------0--------------------2-------------------3--------------------------------------
-3--------------------------------------------------------------------------------------------------
Brenn kleine Kerze, damit ich Dich seh, damit ich Dich finde, zwischen Steinen und Schnee.



Hab ich mich verirrt, der Weg ist so schmal, oder bist Du erloschen, frag ich mich jedesmal.

Brenn kleines Lichtlein, in dunkelster Nacht. Vertreibst Dir die Kälte und hälst eisern Wacht.

Dein Schimmer entschwindet ins Dunkel hinein, Du brennst hell im Herzen, doch hier draußen so klein.

Brenn mein Herzlein, in Feuer und Glut. Verbrenn meinen Kummer, verbrenn meine Wut.

Wirf ein Licht auf die Stunden, so sorglos und klar.

Auf die Zeiten als ich noch ein anderer war.


Em        G      D         A
Auf Wiederseh'n, auf Wiederseh'n.
Em              G        D              B
In einem andern Leben... werden wir uns wiedersehn.


 G                  D                   Em                   C
----------------------------------------------------------------------------------------------------
-------3---3---------------3---3---------------0---0---------------1---1----------------------------
---------0---0---------------2---2---------------0---0---------------0---0--------------------------
----------------------0--------------------2-------------------2------------------------------------
----2---------------0--------------------2-------------------3--------------------------------------
-3--------------------------------------------------------------------------------------------------

Du erinnerst mich   warum ich jetzt      Warum ich meine     Im dunkeln verbring.  
daran,              hier bin.            Tage nicht 

Treibts mich auch umher, mal voll und mal schwer.
Du, kleine Kerze hast Dich nie verzehrt.
Leb wohl mein Lichtlein, vorbei ist die Zeit.
In Dunkelheit vor mir, der Weg ist so weit.
Ich sag's Dir im stillen, so wie es ist.
Kein Tag wird vergehen an dem ich Dich nicht vermiss.



Em        G      D         A
Auf Wiederseh'n, auf Wiederseh'n.
Em              G        D              B
In einem andern Leben... werden wir uns wiedersehn.

Em        G      D         A
Auf Wiederseh'n, auf Wiederseh'n.
Em              G        D              B
In einem andern Leben... werden wir uns wiedersehn.


 G                  D                   Em                   C
----------------------------------------------------------------------------------------------------
-------3---3---------------3---3--------------0---0----------------1---1----------------------------
---------0---0---------------2---2---------------0---0----------------0----0------------------------
----2------------------0--------------------2-------------------2-----------------------------------
-3------------------0--------------------2-------------------3--------------------------------------
----------------------------------------------------------------------------------------------------

Denn jeder Tag ist  den man nicht       Und ich glaub        wenn Du mich lachen siehst.
verloren,           genießt.            Du wärst froh,

Darum brenn kleine Kerze, in dunkelster Nacht.
Und wir halten gemeinsam am Grabstein wacht.

            
            
Suggest correction
Creating personal tab
Creating personal tab
You can edit any tab online and save it as your Personal.

You can edit, replace or remove any tab part or add personal notes – all changes will be seen only by you.

Personal tabs can be accessed anytime from any device, even offline.
Learn more »
Give kudos to tab author, rate the tab!
1 2 3 4 5
comments
print report bad tab
guest
You may want to rate the tab now too:
select rating
Wanna post a correction for this tab? Suggest correction