Oops, an error
Loading. Please wait.

Day Dream tab

61 views 6 this week
no commentswrite comment
1 2 3 4 5
3 more votes to show rating
add to favorites
×
Save as Personal and add changes to this tab that will be seen only by you. Learn more ›
×
You can save this tab as Personal to edit and correct it or add notes. All changes will be seen only by you. Learn more »
launch autoscroll
font size
0
reset
how to read this tab
guitar tuner
edit
Autoscroll
slow
fast
+/-
esc
set tempo
stop
[Intro and Verse]
e|------------------------------------------------------------|
B|------------------------------------------------------------|
G|---------------------------------------2-2-2----------2-2-2-| (x4)
D|---------2-2-2----------------4----4-4-------4----4-4-------|
A|-4---4-4-------4----4-4-2-2-2-------------------------------|
E|------------------------------------------------------------|

I want you to know
That every time I see your face I melt
Cause your eyes and your smile and your hair always look so well
And when I think of you my heart always climbs into my throat
I’m trying to spit out these words but they just won’t go

e|--------------------------------------------|---------------------------------------------|
B|--------------------------------------------|---------------------------------------------|
G|-9-9-6-6-4-4-4-6--9-9-9-9-9-6-6-4-4-4-6-6-6-|-9-9-6-6-4-4-4-6--9-9-9-9-9-6-6-4-4-4-2-2-2--| (x3)
D|--------------------------------------------|---------------------------------------------|
A|--------------------------------------------|---------------------------------------------|
E|--------------------------------------------|---------------------------------------------|

Cause I don’t want to see you with anyone else
I just wish that I could have you to keep to myself
And I’d like to take you out for the time of your life
And if I say the right things can I kiss you at night

[Instrumental]
e|-----------------------------------------------7-9-9-7-7------------------|
B|-----7-7-10-7-10-7-----------7-7-10-7-10--7-10-----------10-10-10-7-7-7---|
G|-9-9---------------9-9-9-9-9----------------------------------------------|
D|--------------------------------------------------------------------------|
A|--------------------------------------------------------------------------|
E|--------------------------------------------------------------------------|

e|---9-9-7-7---------------------------------------------------|
B|-----------10-10-10-7-7-7------------------------------------|
G|-------------------------------------------------------------|
D|-------------------------------------------------------------|
A|-------------------------------------------------------------|
E|-------------------------------------------------------------|

e|-----------------------------------------------7-9-9-7-7------------------|
B|-----7-7-10-7-10-7-----------7-7-10-7-10--7-10-----------10-10-10-7-7-7---|
G|-9-9---------------9-9-9-9-9----------------------------------------------|
D|--------------------------------------------------------------------------|
A|--------------------------------------------------------------------------|
E|--------------------------------------------------------------------------|

e|---9-9-7-7---------------------------------------------------|
B|-----------10-10-10-7-7-7------------------------------------|
G|-------------------------------------------------------------|
D|-------------------------------------------------------------|
A|-------------------------------------------------------------|
E|-------------------------------------------------------------|

[Verse 2]
N.C
I want you to know that every time I see your face I melt
Your eyes your smile and your hair always look so well
And when I think of you my heart always climbs into my throat
I’m trying to spit out these words but they just won’t go

e|--------------------------------------------|---------------------------------------------|
B|--------------------------------------------|---------------------------------------------|
G|-9-9-6-6-4-4-4-6--9-9-9-9-9-6-6-4-4-4-6-6-6-|-9-9-6-6-4-4-4-6--9-9-9-9-9-6-6-4-4-4-2-2-2--| (x3)
D|--------------------------------------------|---------------------------------------------|
A|--------------------------------------------|---------------------------------------------|
E|--------------------------------------------|---------------------------------------------|

Cause I don’t want to see you with anyone else
I just wish that I could have you to keep to myself
And I’d like to take you out for the time of your life
And if I say the right things can I kiss you at night

[Outro]
e|----------------------------|
B|----------------------------|
G|-6-6--6-6-6-----------------| (x4)
D|-------------7-7-6-6-6------|
A|----------------------------|
E|----------------------------|

e|-----------------4-4-4------|
B|-----5-5-5------------------|
G|-6-6------------------------| (x8) 
D|------------7-7-------------|
A|----------------------------|
E|----------------------------|
Suggest correction
Creating personal tab
Creating personal tab
You can edit any tab online and save it as your Personal.

You can edit, replace or remove any tab part or add personal notes – all changes will be seen only by you.

Personal tabs can be accessed anytime from any device, even offline.
Learn more »
Give kudos to tab author, rate the tab!
1 2 3 4 5
comments
print report bad tab
guest
You may want to rate the tab now too:
select rating
Wanna post a correction for this tab? Suggest correction