Oops, an error
Loading. Please wait.

If I Had A Heart Tab

version 1
version 1

Intro

  • This tab is just improved one.

Interactive

412 views 33 this week
no commentswrite comment
1 2 3 4 5
2 more votes to show rating
add to favorites
launch autoscroll
font size
0
reset
how to read this tab
guitar tuner
Autoscroll
slow
fast
+/-
esc
set tempo
stop
Help us to improve Ultimate-Guitar.com Take our survey!
×
Author
Difficulty
intermediate
About this tab version
This tab is just improved one. Was this info helpful? Yes No
Tuning: Standard

It is't originally my tab, I just corrected this guy's tab https://www.youtube.com/watch?v=TwFpnFUv9Cc
don't forget to check him out.


[Intro]

e|--------------------------------------------------------------------------------------------|
B|--------------------------------------------------------------------------------------------|
G|--------------------------------------------------------------------------------------------|
D|--------------------------------------------------------------------------------------------|
A|--------------------------------------------------------------------------------------------|
E|--0-----3----5--5---3p0h3--0--0---0-----3----5--5---3p0h3--0--0-----------------------------|

e|--------------------------------------------------------------------------------------------|
B|-------------------------------0------------------------------------------------------------|
G|-----------------------0--2---------2p0h2---------------------------------------------------|
D|---2---2--2--0---2-----0--2------------------2--2-------------------------------------------|
A|---2---------2---2--------0----0------------------------------------------------------------|
E|---0----------------0---------------3--------0----------------------------------------------|

e|--------------------------------------------------------------------------------------------|
B|--------------------------------------0-----------------------------------------------------|
G|------------------------0--0--2----0-------2p0h2--------------------------------------------|
D|----2---2--2--0---2-----0--0--2--------------------2--2-------------------------------------|
A|----2---------2---2-----------0-------0-----------------------------------------------------|
E|----0----------------0-----------------------------0----------------------------------------|

e|--------------------------------------------------------------------------------------------|
B|--------------------------------------------------------------------------------------------|
G|-----------------------------------------------------0--0--2------2----2---2--2-----2--0----|
D|---------------------------------2---2--2--0---2-----0--0--2------2----2---------2--------2-|
A|---------------------------------2---------2---2-----------0-----------0--------------------|
E|-0-----3----5--5---3p0h3--0--0---0----------------0---------------0-----------------------0-|

e|--------------------------------------------------------------------------------------------|
B|--------------------------------------0-----------------------------------------------------|
G|------------------------0--0--2----0-------2p0h2--------------------------------------------|
D|----2---2--2--0---2-----0--0--2--------------------2--2-------------------------------------|
A|----2---------2---2-----------0-------0-----------------------------------------------------|
E|----0----------------0-----------------------------0----------------------------------------|

Feel free to correct, i appreciate it.


************************************

| h  Hammer-on
| p  Pull-off

************************************
Suggest correction
Give kudos to tab author, rate the tab!
1 2 3 4 5
comments
print report bad tab
guest
You may want to rate the tab now too:
select rating
Wanna post a correction for this tab? Suggest correction