Oops, an error
Loading. Please wait.

Source bass

4,297 views 54 this week
4 commentsread comments
1 2 3 4 5
x 4
add to favorites
×
Save as Personal and add changes to this tab that will be seen only by you. Learn more ›
×
You can save this tab as Personal to edit and correct it or add notes. All changes will be seen only by you. Learn more »
launch autoscroll
font size
0
reset
guitar tuner
edit
Autoscroll
slow
fast
+/-
esc
set tempo
stop
Author
Difficulty
-------------------------------------------------------------------------------
                             Source - Fever the Ghost
-------------------------------------------------------------------------------
Tabbed by: acoustic_jam14

Listen to the song for timing, it's played quite fast.

Tuning: Standard EADG

Intro:
G|---------------------------------------------------------------------------|
D|----5-5---------3----------3h5/7-5-----------------------------------------|  x3
A|----------3h4h5---5--3h4h5--------5-5-3-3----------------------------------|   
E|--3------------------------------------------------------------------------|

Verse:
G|---------------------------------------------------------------------------|
D|---------------------------------------------------------------------------|  x2
A|--------------------------------------------------------------5-5*---------|  *second time play this note once
E|--3-333-333-333-333-333-333-333-336-666-666-666-66-5h6-8-8-5h6--------------|

G|---------------------------------------------------------------------------|
D|----------------------------------------------------------88---------88----|  x2
A|-------------------------------------------------*8-1010-8---8-1010-8------| *can also be played as
E|--3-333-333-333-333-333-333-333-336-666-666-666----------------------------| A|----------33---------33----|
                                                                               E|--1-33--1----1-33--1-------|
 Pre-chorus:         *Chorus:
G|--12-10--------------------------------------------------------------------|
D|------12-10-12-10------------------------------55-5------8-10--------------|  Chorus x2
A|-----------------13-10-*10--8-10-8---------55-5----/8---8-----3--5--6--8---|
E|------------------------11--------10-8\3--3--------------------------------|

Intro:
G|---------------------------------------------------------------------------|
D|------5-5--------3----------3h5/7-5----------------------------------------|  x2
A|-----------3h4h5---5--3h4h5--------5-5-3-3---------------------------------|   
E|--3------------------------------------------------------------------------|

Verse:
G|---------------------------------------------------------------------------|
D|---------------------------------------------------------------------------|  x2
A|--------------------------------------------------------------5-5*---------|  *second time play this note once
E|--3-333-333-333-333-333-333-333-336-666-666-666-66-5h6-8-8-5h6--------------|

G|---------------------------------------------------------------------------|
D|---------------------------------------------------------88--------88------|  x2
A|-------------------------------------------------8-1010-8---8-1010-8-------|
E|--3-333-333-333-333-333-333-333-336-666-666-666----------------------------|

 Pre-chorus:         *Chorus:
G|--12-10--------------------------------------------------------------------|
D|------12-10-12-10------------------------------55-5------8-10--------------|  Chorus x4
A|-----------------13-10-*10--8-10-8---------55-5----/8---8-----3--5--6--8---|
E|------------------------11--------10-8\3--3--------------------------------|

Verse: (instrumental)
G|---------------------------------------------------------------------------|
D|---------------------------------------------------------------------------|  x2
A|--------------------------------------------------------------5-5*---------|  *second time play this note once
E|--3-333-333-333-333-333-333-333-336-666-666-666-66-5h6-8-8-5h6--------------|

G|---------------------------------------------------------------------------|
D|---------------------------------------------------------88---------88-----|  x2
A|-------------------------------------------------8-1010-8---8-1010-8-------|
E|--3-333-333-333-333-333-333-333-336-666-666-666----------------------------|

 Pre-chorus:         *Chorus:
G|--12-10--------------------------------------------------------------------|
D|-------12-10-12-10------------------------------55-5------8-10-------------|  Chorus x4
A|------------------13-10-*10--8-10-8---------55-5----/8---8-----3--5--6--8--|
E|-------------------------11--------10-8\3--3-------------------------------|

Outro:
G|---------------------------------------------------------------------------| 12 semiquavers and a triplet
D|---------------------------------------------------------------------------|
A|---------------------------------------------------------------------------|
E|--333333333333333333333333333333333333333333333333333----------------------| Start soft and get louder,
                                                                               emphasise last note.

| /  slide up
| \  slide down
| h  hammer-on
| p  pull-off
| ~  vibrato
| +  harmonic
| x  Mute note
===============================================================================

            
            
Suggest correction
Creating personal tab
Creating personal tab
You can edit any tab online and save it as your Personal.

You can edit, replace or remove any tab part or add personal notes – all changes will be seen only by you.

Personal tabs can be accessed anytime from any device, even offline.
Learn more »
comments
print report bad tab
4 comments total. Showing first comments.
0 reply
benjatroncoso 10 Apr 18, 2016 07:48 AM

A|----------11---------11----|
E|--1-33--1----1-33--1-------|

0 reply
benjatroncoso 10 Apr 18, 2016 07:49 AM

There are some fills missing, right?

0 reply
hattyjimenez 10 Jul 13, 2017 03:37 AM, edited at 07:38 am

G|---------------------------------------------------------------------------|
D|----5-5---------3-------7-5----------------------------------------| x3
A|----------33--5--3--3355--------5-5-3-3----------------------------------|
E|--3-----------------3-------------------------------------------------------|

guest
You may want to rate the tab now too:
select rating
Wanna post a correction for this tab? Suggest correction