Oops, an error
Loading. Please wait.

Barco A Venus chords

version 2
version 2

Whole song

by Fey
29 views 1 this week
no commentswrite comment
1 2 3 4 5
3 more votes to show rating
add to favorites
×
Save as Personal and add changes to this tab that will be seen only by you. Learn more ›
×
You can save this tab as Personal to edit and correct it or add notes. All changes will be seen only by you. Learn more »
launch autoscroll
font size
0
reset
transpose
0
reset
simplify chords
display chords
guitar tuner
edit
Autoscroll
slow
fast
+/-
esc
set tempo
stop
Strumming
There is no strumming pattern for this song yet. and get +5 IQ
Muy sensila, espero no haya dudas. para transportarla,
les puedo ayudar. mucha suerte

saludos a cd Victoria :)


Intro


G - D/A - Em x3 (3 VECES)


A - G - F#m - Em
------------------------------------------
SE toca esto.
Bm -  Fm  - F -

mietras se toca el sig. Bajo  2 veces

    |     |     |     |            |      |     |     |
|------------------------------|----------------------------|
|------------------------------|----------------------------|
|------------------------------|----------------------------|
|------------------------------|----------------------------|
|----2-----2----0------0-------|----2-----2------0----0--2--|
|------------2------2------2---|--------------2----2--------|

    |     |     |     |         |    |     |    |
|--------------------------|-------------------------|
|--------------------------|-------------------------|
|--------------------------|-------------------------|
|--------------------------|-------------------------|
|--------------------------|----0-------0--1---------|
|---2--------2--4--------4-|-------------------------|


 Bm
Dices que siempre estas viajando
                   F
Pero me estas engañando

Yo se que tu estas solo
                       Bm
Y que no sales de tu cuarto


Las luces de la calle
                      Fm
Te hacen daño cuando sales
                               F
Porque tu mundo es otro mucho mas oscuro

Coro:

 G      D/A           Em
Dejalo ya, sabes que nunca
           Em7        A    G - F#m - Em
Has ido a venus en un barco
   G        D/A        Em
Quieres flotar pero lo unico
     Em7         A    G - F#m - Em    (se repite) A - G - F#m - Em
Que haces es hundirte


Otra ves intermedio del bajo)

Bm  -Fm - F x2


 Bm
Sabes que pasas por la vida
                    Fm
Sin salir de tu mentira

Que muchos alimentan
        F          Bm
Y que crece cada dia


La mafia te persigue
                Fm
Y te coge la policia

Te encierran y te sueltan
     F
Y todos te dicen


Coro?

Termina estos acordes acompañados del bajeo que tambien se toca en la estrofas

Bm - Fm - F


D/A     Em7
2        0
3        0
2        0
0        0
0        2
X        2


Mucha suerte,
Saludos a la raza de vicky ranch
Jonathan

            
            
Suggest correction
Creating personal tab
Creating personal tab
You can edit any tab online and save it as your Personal.

You can edit, replace or remove any tab part or add personal notes – all changes will be seen only by you.

Personal tabs can be accessed anytime from any device, even offline.
Learn more »
Give kudos to tab author, rate the tab!
1 2 3 4 5
comments
print report bad tab
guest
Wanna post a correction for this tab? Suggest correction