Oops, an error
Loading. Please wait.

Canela chords

version 4
version 4

Whole song

by Fey
74 views 1 this week
no commentswrite comment
1 2 3 4 5
3 more votes to show rating
add to favorites
×
Save as Personal and add changes to this tab that will be seen only by you. Learn more ›
×
You can save this tab as Personal to edit and correct it or add notes. All changes will be seen only by you. Learn more »
launch autoscroll
font size
0
reset
transpose
0
reset
simplify chords
display chords
guitar tuner
edit
Autoscroll
slow
fast
+/-
esc
set tempo
stop
Strumming
There is no strumming pattern for this song yet. and get +5 IQ
Esta es una corrección de la transcripción anterior,
por estar fuera de tono y por tener algúno errores
decidí enviar esta transcripción, que esta bien y
al tono del disco...
Aumente algúnas partes del solo de guitarra y cambié
algunos acordes...


INTRO: G G7 Cb Am B Em

    G
   e|----3h5p3---3h5p3-3-5-5s8-7-7-5h7------------------|
   B|--3-------3----------------------------------------|
   G|---------------------------------------------------|
   D|---------------------------------------------------|
   A|---------------------------------------------------|
   E|---------------------------------------------------|


        Am      B               Em
LA LUNA QUE NOS VIO BAILAR PEGADOS
G7        C       Am         B         Em
ES LA QUE NOS VE HOY, CADA UNO POR SU LADO
          Am
NUNCA HE QUERIDO ASI
B       C        Am       D  C
A GOLPES DE LOCURA Y DESESPERACION

G              G7
AMOR, POR TU AMOR
      C           Cm
CON SABOR, A CANELA EN RAMA
G             G7
VOY, POR TU AMOR
       C       Am    B     G
QUE NO DOY, NI UN PALO AL AGUA, NO

Inter:  G G7 C Am B Em

e|-------------------------------------------------------------------|
B|-------------------------------------------------------------------|
G|-------------------------------------------------------------------|
D|-6-5-3--------------------------------------------------------Em---|
A|-------6-4-4-6s8--------------5-7-8-7-7-7--7-9-10-10--9-8-7--------|
E|------------------8-8--8-9-8---------------------------------------|


            Am         B         Em
NO HAY TINTA NI PAPEL, EN LAS IMPRENTAS
G7      C        Am        B              Em
PARA PODER PONER LO QUE TE QUIERO EN LETRAS
          Am
NO EXISTE UNA CANCION
B            C         Am         D  C
MAS TRISTE Y MAS OSCURA QUE LA DEL ADIOS

G              G7
AMOR, POR TU AMOR
      C               Cm
CON SABOR, A CANELA EN RAMA
G              G7
VOY, POR TU AMOR
       C         Am    B    Em
QUE NO DOY, NI UN PALO AL AGUA, NO

             Bm
TENDRE QUE DESDIBUJAR
     C            A  A7
TUS PALABRAS DE MIS LABIOS
Em          Am
EL OFICIO DE OLVIDAR
          C           B         Em
NO ES TAN FACIL DE APRENDER, SALVAME

Inter:  Am B Em G7 C A B Em

          Am
NO PUEDE HABER CANCION
B            C       Am         D  C
MAS TRISTE Y MAS OSCURA QUE LA DEL ADIOS


G              G7
AMOR, POR TU AMOR
      C               Cm
CON SABOR, A CANELA EN RAMA
G              G7
VOY, POR TU AMOR
       C         Am    B    Em
QUE NO DOY, NI UN PALO AL AGUA, NO

            
            
Suggest correction
Creating personal tab
Creating personal tab
You can edit any tab online and save it as your Personal.

You can edit, replace or remove any tab part or add personal notes – all changes will be seen only by you.

Personal tabs can be accessed anytime from any device, even offline.
Learn more »
Give kudos to tab author, rate the tab!
1 2 3 4 5
comments
print report bad tab
guest
Wanna post a correction for this tab? Suggest correction