Oops, an error
Loading. Please wait.

My Cross tab

by FFH
312 views 3 this week
no commentswrite comment
1 2 3 4 5
3 more votes to show rating
add to favorites
×
Save as Personal and add changes to this tab that will be seen only by you. Learn more ›
×
You can save this tab as Personal to edit and correct it or add notes. All changes will be seen only by you. Learn more »
launch autoscroll
font size
0
reset
how to read this tab
guitar tuner
edit
Autoscroll
slow
fast
+/-
esc
set tempo
stop
Tuning: Standard

Intro:
   A             A             A             A
e|---------0-------------0-------------0-------------0---------------------|
B|-------0---0---------0---0---------0---0---------0---0-------------------|
G|-----2-------2-----2-------2-----2-------2-----2-------2-----------------|
D|---2-------------2-------------2-------------2---------------------------|
A|-0-------------0-------------0-------------0-----------------------------|
E|-------------------------------------------------------------------------|

 OR 

(Capo 2nd fret)
   G             G             G             G
e|-----------------------3---------------------------3---------------------|
B|-0---0-1---1---0---0-1---1---0---0-1---1---0---0-1---1-------------------|
G|-0---0-0---0---0---0-0-----0-0---0-0---0---0---0-0-----0-----------------|
D|---0-----0---0---0-------------0-----0---0---0---------------------------|
A|-------------------------------------------------------------------------|
E|-3-------------3-------------3-------------3-----------------------------|

Verse 1:
   A            A/F#           Bm            D
e|---------0-------------0-------------2-------------0---------------------|
B|-------0---0---------0---0---------3---3-------3-------3-----------------|
G|-----2-------2-----2-------2-----4-------4---2---2---2---2---------------|
D|---2-------------2-------------4-----------0-----------------------------|
A|-0---------------------------2-------------------------------------------|
E|---------------2---------------------------------------------------------| 

   A            A/C#           Bm            D       E
e|---------0-------------0-------------2-----------0-------0---------------|
B|-------0---0---------0---0---------3---3-------3-------0-----------------|
G|-----2-------2-----2-------2-----4-------4---2-------1-------------------|
D|---2-------------2-------------4-----------0-----------------------------|
A|-0-------------4-------------2-------------------------------------------|
E|---------------------------------------------------0---------------------|  

OR

   G       Em     Am7          C         D
e|-----------------------3-------------------------------------------------|
B|-------0-------3---1-----1---------1---------3---------------------------|
G|-----2-------0-------0-----0-----0---------0-----------------------------|
D|---0-------4-------------------2---------4-------------------------------|
A|-----------------0-----------3-------3/5---------------------------------|
E|-3-------0---------------------------------------------------------------|

   G      D/B         Am7         C         D
e|---------------0----------3----------------------------------------------|
B|-------0---3-----3----1-----1---------1---------3------------------------|
G|-----2-------0-----0----0-----0-----0---------0--------------------------|
D|---0------------------------------2---------4----------------------------|
A|---------2-----------0----------3-------3/5------------------------------|
E|-3-----------------------------------------------------------------------|

Pre-Chorus 1:
  A/F#           D            A/C#           D       E
e|---------0-----------0---------------0-----------0-------0---------------|
B|-------0---0-------3---2-----------0---0-------3-------0-----------------|
G|-----2-------2---2-------3-------2-------2---2-------1-------------------|
D|---2-----------0-----------0---2-----------0-----------------------------|
A|-----------------------------4-------------------------------------------|
E|-2-------------------------------------------------0---------------------|

  A/F#           D            A/C#           D
e|---------0-----------0---------------0-----------0-4-5-------------------|
B|-------0---0-------3---2-----------0---0-------3---5-7-------------------|
G|-----2-------2---2-------3-------2-------2---2-----4-7-------------------|
D|---2-----------0-----------0---2-----------0-----------------------------|
A|-----------------------------4-------------------------------------------|
E|-2-----------------------------------------------------------------------|

OR

   Em      C          D/B          C       D
e|---------------0-----------0-------------3-2-----------------------------|
B|-------3---3-----3-----3-----3---------3-3---3---------------------------|
G|-----0-------0-----0-----0-----0-----0---2-----2-------------------------|
D|---4-------------------------------2-----0-------------------------------|
A|---------3-----------2-----------3---------------------------------------|
E|-0-----------------------------------------------------------------------| 

   Em      C          D/B          C
e|---------------0-----------0-----------0-2-2h3---------------------------|
B|-------3---3-----3-----3-----3-------3---3-3-----------------------------|
G|-----0-------0-----0-----0-----0---0-----0-0-----------------------------|
D|---4---------------------------------------------------------------------|
A|---------3-----------2-----------3-------3-3-----------------------------|
E|-0-----------------------------------------------------------------------|

Chorus 1:
   A              A/F#             D               E
e|---------0---------------0---------------0---------------0---------------|
B|-------0---0-----------0---0---------3-------3---------0---0-------------|
G|-----2-------2-------2-------2-----2---2---2---2-----1-------1-----------|
D|---2-----------2---2-----------2-0-----------------2-----------2---------|
A|-0-----------------------------------------------------------------------|
E|-----------------2-------------------------------0-----------------------|   

   A              A/C#             D               E
e|---------0---------------0---------------0---------------0---------------|
B|-------0---0-----------0---0---------3-------3---------0---0-------------|
G|-----2-------2-------2-------2-----2---2---2---2-----1-------1-----------|
D|---2-----------2---2-----------2-0-----------------2-----------2---------|
A|-0---------------4-------------------------------------------------------|
E|-------------------------------------------------0-----------------------|
  
  A/F#    A/C#     D               A               E
e|-------------------------0---------------0---------------0---------------|
B|-------0-------0-----3-------3---------0---0-----------0---0-------------|
G|-----2-------2-----2---2---2---2-----2-------2-------1-------1-----------|
D|---2-------2-----0-----------------2-----------2---2-----------2---------|
A|---------4-----------------------0---------------------------------------|
E|-2-----------------------------------------------0-----------------------|

  A/F#    A/C#     D               A               E
e|-------------------------0---------------0-------0-----------------------|
B|-------0-------0-----3-------3---------0---0-----0-----------------------|
G|-----2-------2-----2---2---2---2-----2-------2---1-----------------------|
D|---2-------2-----0-----------------2-----------2-2-----------------------|
A|---------4-----------------------0---------------2-----------------------|
E|-2-----------------------------------------------0-----------------------| 

OR

   G       Em      C9     Dsus     D G      D/B      C9     Dsus     D
e|-------------------------------3-2-------------------------------3-2-----|
B|-------0-------3-------3---------3-------0-------3-------3---------3-----|
G|-----2-------0-------0-------3---2-----2-------0-------0-------3---2-----|
D|---0-------4-------2-------2-----0---0-------0-------2-------2-----0-----|
A|-----------------3-------0-----------------2-------3-------0-------------|
E|-3-------0-------------------------3-------------------------------------|

   Em D/B  C9  G   D         Em D/B  C9  G  Dsus D   
e|-3---0---3---3---2-3p2-----3---0---3---3---3---2-------------------------|
B|-3---3---3---3---3-----3---3---3---3---3---3---3-------------------------|
G|-0---2---0---2---2-------2-0---2---0---2---2---2-------------------------|
D|-2---0---2---0---0---------2---0---2---0---0---0-------------------------|
A|-2---2---3---0-------------2---2---3---0---------------------------------|
E|-0-----------3-------------0-----------3---------------------------------|

Interlude 1:
   A              A/F#             A               D
e|---------0---------------0---------------0-------0-----------------------|
B|-------0---0-----------0---0-----------0---0-----3-----------------------|
G|-----2-------0-------2-------2-------2-------2---2-----------------------|
D|---2-----------2---2-----------2---2-----------2-0-----------------------|
A|-0-------------------------------0---------------------------------------|
E|-----------------2-------------------------------------------------------|  

OR

   G             Em            G             C9
e|-------------------------------------------0-----------------------------|
B|-------0-------------3-------------0-------3-----------------------------|
G|-----2---2---2-----0---0---0-----2---2---2-0-----------------------------|
D|---0-------0-----4-------4-----0-------0---2-----------------------------|
A|-------------------------------------------3-----------------------------|
E|-3-------------0-------------3-------------------------------------------|

Verse 2:
   A              A/F#             Bm              D
e|---------0---------------0---------------2---------------0---------------|
B|-------0---0-----------0---0-----------3---3---------3-------3-----------|
G|-----2-------2-------2-------2-------4-------4-----2---2---2---2---------|
D|---2-----------2---2-----------2---4-----------4-0-----------------------|
A|-0-------------------------------2---------------------------------------|
E|-----------------2-------------------------------------------------------|

   A              A/C#             Bm              D        E
e|---------0---------------0---------------2-------------0-------0---------|
B|-------0---0-----------0---0-----------3---3---------3-------0-----------|
G|-----2-------2-------2-------2-------4-------4-----2-------1-------------|
D|---2-----------2---2-----------2---4-----------4-0-----------------------|
A|-0---------------4---------------2---------------------------------------|
E|---------------------------------------------------------0---------------| 

OR

   G   Em Am7  C   D   G  D/B Am7  C   D
e|-3---3---3---3---3---3---0---3---3---3-----------------------------------|
B|-3---3---1---1---3---3---3---1---1---3-----------------------------------|
G|-2---0---0---0---2---2---2---0---0---2-----------------------------------|
D|-0---2---2---2---0---0---0---2---2---0-----------------------------------|
A|-x---2---0---3-------x---2---0---3---------------------------------------|
E|-3---0---------------3---------------------------------------------------|

Pre-Chorus 2:
  A/F#             D              A/C#             D       E
e|---------0---------------0---------------0-------------0-------0---------|
B|-------0---0---------3-------3---------0---0---------3-------0-----------|
G|-----2-------2-----2---2---2---2-----2-------2-----2-------1-------------|
D|---2-----------2-0-----------------2-----------2-0-----------------------|
A|---------------------------------4---------------------------------------|
E|-2-------------------------------------------------------0---------------|

  A/F#             D              A/C#             D
e|---------0---------------0---------------0-------------0-4-5-------------|
B|-------0---0---------3-------3---------0---0---------3---5-7-------------|
G|-----2-------2-----2---2---2---2-----2-------2-----2-----4-7-------------|
D|---2-----------2-0-----------------2-----------2-0-----------------------|
A|---------------------------------4---------------------------------------|
E|-2-----------------------------------------------------------------------|  

OR 

   Em  C9 D/B  C9 Dsus Em  C9 D/B  C9
e|-3---3---0---3---3---3---3---0---0---2---3-------------------------------|
B|-3---3---3---3---3---3---3---3---3---3---3-------------------------------|
G|-0---0---2---0---2---0---0---2---0---0---0-------------------------------|
D|-2---2---0---2---0---2---2---0---2---0---0-------------------------------|
A|-2---3---2---3-------2---3---2---3---3---3-------------------------------|
E|-0-------------------0---------------------------------------------------|

Chorus 1

Interlude 2:
  A/F#             D               E               E      A/F#
e|---------0---------------0---------------0-------------------------------|
B|-------0---0---------3-------3---------0---0-----------0-------0---------|
G|-----2-------2-----2---2---2---2-----1-------1-------1-------2-----------|
D|---2-----------2-0-----------------2-----------2---2-------2-------------|
A|-------------------------------------------------------------------------|
E|-2-------------------------------0---------------0-------2---------------|

   G               D              A/C#             D
e|---------3---------------0---------------0-------------2-4-5-------------|
B|-------3---3---------3-------3---------0---0---------3---5-7-------------|
G|-----0-------0-----2---2---2---2-----2-------2-----2-----4-7-------------|
D|---0-----------0-0-----------------2-----------2-0-----------------------|
A|---------------------------------4---------------------------------------|
E|-3-----------------------------------------------------------------------|

OR

e|-------------------------------------------------------------------------|
B|-1/3~-0---0-0h2~-0-------------------------------------------------------|
G|--------2----------0h2~-2h4p2p0-0h2~-2-0-2/4~-2-0------------------------|
D|-------------------------------------------------------------------------|
A|-------------------------------------------------------------------------|
E|-------------------------------------------------------------------------|

e|-------------------------------------------------------------------------|
B|---------------------------------------------------------6/8~------------|
G|-2-4-4/5~-4h5p4----------------------7~-7\5-5-4-4h5-4-5~-----------------|
D|----------------7-5------------5-7/9----9\7-7-5-5------------------------|
A|--------------------5~-----5h7-------------------------------------------|
E|-----------------------5h7-----------------------------------------------|

Chorus 2:
   A      A/F#     D       E       A      A/C#     D       E
e|-----------------------0-------0-----------------------0---------0-------|
B|-------0-------0-----3-------0---------0-------0-----3---------0---0-----|
G|-----2-------2-----2-------1---------2-------2-----2---------1-------1---|
D|---2-------2-----0-----------------2-------2-----0---------2-----------2-|
A|-0-------------------------------0-------4-------------------------------|
E|---------2---------------0-------------------------------0---------------|

  A/F#    A/C#     D               A               E
e|-------------------------0---------------0---------------0---------------|
B|-------0-------0-----3-------3---------0---0-----------0---0-------------|
G|-----2-------2-----2---2---2---2-----2-------2-------1-------1-----------|
D|---2-------2-----0-----------------2-----------2---2-----------2---------|
A|---------4-----------------------0---------------------------------------|
E|-2-----------------------------------------------0-----------------------|

  A/F#    A/C#     D               A               E               E
e|-------------------------0---------------0---------------0-------0-------|
B|-------0-------0-----3-------3---------0---0-----------0---0-----0-------|
G|-----2-------2-----2---2---2---2-----2-------2-------1-------1---1-------|
D|---2-------2-----0-----------------2-----------2---2-----------2-2-------|
A|---------4-----------------------0-------------------------------2-------|
E|-2-----------------------------------------------0---------------0-------|  

OR

   G       Em      C       D             
e|-----------------------0-------3p2---------------------------------------|
B|-------0-------3-----3-------3-----3-------------------------------------|
G|-----2-------0-----0-------2---------2-----------------------------------|
D|---0-------4-------------0-----------------------------------------------|
A|-----------------3-------------------------------------------------------|
E|-3-------0---------------------------------------------------------------| 

   G      D/B     Am7            D
e|-----------------------3-------------3p2---------------------------------|
B|-------0-------3---1-----1---------3-----3-------------------------------|
G|-----2-------0-------0-----0-----2---------2-----------------------------|
D|---0-------0-----------------2-0-------------0---------------------------|
A|---------2-------0-------------------------------------------------------|
E|-3-----------------------------------------------------------------------| 

   Em D/B  C9  G   D         Em D/B  C9  G   D  Dsus D
e|-3---0---3---3---2-3p2-----3---0---3---3---2---3---2---------------------|
B|-3---3---3---3---3-----3---3---3---3---3---3---3---3---------------------|
G|-0---2---0---2---2-------2-0---2---0---2---2---2---2---------------------|
D|-2---0---2---0---0---------2---0---2---0---0---0---0---------------------|
A|-2---2---3---0-------------2---2---3---0---------------------------------|
E|-0-----------3-------------0-----------3---------------------------------|

Outro:
  A/F#             D              
e|---------0---------------0-----------------------------------------------|
B|-------0---0---------3-------3-------------------------------------------|
G|-----2-------2-----2---2---2---2-----------------------------------------|
D|---2-----------2-0-------------------------------------------------------|
A|-------------------------------------------------------------------------|
E|-2-----------------------------------------------------------------------|

  A/F#             D       E       A               A
e|---------0-------------0-------0---------0-------0-----------------------|
B|-------0---0---------3-------0---------0---0-----0-----------------------|
G|-----2-------2-----2-------1---------2-------2---2-----------------------|
D|---2-----------2-0-----------------2-----------2-2-----------------------|
A|---------------------------------0---------------0-----------------------|
E|-2-----------------------0-----------------------------------------------|

OR 

   Em            C9            Em            C9 Dsus D  Gsus             G
e|-----------------------0-------------------0---3---2---------------------|
B|-------3-------------3---3---------3-------3---3---3---1-----1-----1---0-|
G|-----0---0---0-----0-------0-----0---0---0-0---2---2---0---0-----0---0-0-|
D|---4-------4-----2-------------4-------4---2---0---0-----0-----0-------0-|
A|---------------3---------------------------3-----------------------------|
E|-0---------------------------0-------------------------3---------------3-|

| /  slide up
| \  slide down
| h  hammer-on
| p  pull-off
| ~  vibrato
| +  harmonic
| x  Mute note

            
            
Suggest correction
Creating personal tab
Creating personal tab
You can edit any tab online and save it as your Personal.

You can edit, replace or remove any tab part or add personal notes – all changes will be seen only by you.

Personal tabs can be accessed anytime from any device, even offline.
Learn more »
Give kudos to tab author, rate the tab!
1 2 3 4 5
comments
print report bad tab
guest
You may want to rate the tab now too:
select rating
Wanna post a correction for this tab? Suggest correction