Oops, an error
Loading. Please wait.

When Shes Near Tab

version 2
version 2

Whole song

1,639 views 6 this week
2 commentsread comments
1 2 3 4 5
accurate
x 3
add to favorites
launch autoscroll
font size
0
reset
how to read this tab
guitar tuner
Autoscroll
slow
fast
+/-
esc
set tempo
stop
Help us to improve Ultimate-Guitar.com Take our survey!
×
Contributor
Difficulty
Capo
Tabbers playing skills
novice
5th fret
intermediate ++
-----------------------------------------------------------------------------
                            WHEN SHE'S NEAR             FICTION FAMILY
-----------------------------------------------------------------------------

Tabbed by:hurricaneherman

Acoustic Guitar 1:Capo 5th
Acoustic Guitar 2:Standard
Electric Guitar  :Standard

I started out tabbing the chords, and ended up with the whole tab.

Thank you to "kylestoughton" for pointing out an error in the chorus' chords.
It lead me to realize several more mistakes in the chord progression.
Updated 1-30-16

~INTRO~

 |acoustic 1|
e|----0-------0-------0-------0-------0-------0-------0-------0---|
B|----------------------------------------------------------------|
G|1-------2-------1-------2-------1-------2-------3-------2-------|
D|2-------2-------2-------2-------2-------2-------2-------2-------|X[2]
A|----------------------------------------------------------------|
E|----------------------------------------------------------------|
 |acoustic 2|                                                     |
e|----------------------------------------------------------------|
B|----------------------------------------------------------------|
G|----------------------------------------------------------------|
D|--7---7---7---7---7---7---7---7---7---7---7---7---7---7---7---7-|X[2]
A|7---7---7---7---7---7---7---7---7---7---7---7---7---7---7---7---|
E|----------------------------------------------------------------|

~VERSE~

 |acoustic 1|
e|----------------------------------------------------------------|
B|----3-------3-------3-------3-------3-------3-------3------(3)--|
G|--2-------0-------2-------4-------3-------2-------0------(2)----|
D|0-------0-------0-------0-------0-------0-------0-------0-------|X[2]
A|----------------------------------------------------------------|
E|----------------------------------------------------------------|
 |acoustic 2|                                                     |
e|----------------------------------------------------------------|
B|----------------------------------------------------------------|
G|----------------------------------------------------------------|
D|----7-------7-------7-------10------10------7-------7------(5)--|X[2]
A|--7-------7-------7-------10------10------7-------7------(5)----|
E|9-------8-------9-------11------10------9-------8-------3-------|
My cover is blown I'm faded and dreary when my love is away my cover is blown
When she leaves me alone I'm weathered and weary the nights are the days when
                         my love is away

~CHORUS~

The electric guitar is playing in the background with the same chords as
acoustic 1 but in fifths.(A5-C#5-F#5-C#5-A5-F5-C5-E5 ETC.)

  A       C#m     F#m     C#m     A       F       C       E
 |acoustic 2|
e|0-0-0-0-4-4-4-4-2-2-2-2-4-4-4-4-0-0-0-0-1-1-1-1-0-0-0-0-0-0-0-0-|
B|2-2-2-2-5-5-5-5-2-2-2-2-5-5-5-5-2-2-2-2-1-1-1-1-1-1-1-1-0-0-0-0-|
G|2-2-2-2-6-6-6-6-2-2-2-2-6-6-6-6-2-2-2-2-2-2-2-2-0-0-0-0-1-1-1-1-|
D|2-2-2-2-6-6-6-6-4-4-4-4-6-6-6-6-2-2-2-2-3-3-3-3-2-2-2-2-2-2-2-2-|
A|0-0-0-0-4-4-4-4-4-4-4-4-4-4-4-4-0-0-0-0-3-3-3-3-3-3-3-3-2-2-2-2-|
E|----------------2-2-2-2-----------------1-1-1-1---------0-0-0-0-|
When she's near the new year's here and there is not a resolution that I
                               can't do
  A       C#m     F#m     C#m     F       E       A
 |acoustic 2|
e|0-0-0-0-4-4-4-4-2-2-2-2-4-4-4-4-1-1-1-1-0-0-0-0-0---------------|
B|2-2-2-2-5-5-5-5-2-2-2-2-5-5-5-5-1-1-1-1-0-0-0-0-2---------------|
G|2-2-2-2-6-6-6-6-2-2-2-2-6-6-6-6-2-2-2-2-1-1-1-1-2---------------|
D|2-2-2-2-6-6-6-6-4-4-4-4-6-6-6-6-3-3-3-3-2-2-2-2-2---------------|
A|0-0-0-0-4-4-4-4-4-4-4-4-4-4-4-4-3-3-3-3-2-2-2-2-0---------------|
E|----------------2-2-2-2---------1-1-1-1-0-0-0-0-----------------|
I see things clearly when she's near me when she's near me all the world is
                                new

~INTERLUDE~

 |acoustic 1|
e|----0-------0-------0-------0-------0-------0-------0-------0---|
B|----------------------------------------------------------------|
G|1-------2-------1-------2-------1-------2-------3-------2-------|
D|2-------2-------2-------2-------2-------2-------2-------2-------|
A|----------------------------------------------------------------|
E|----------------------------------------------------------------|
 |acoustic 2|                                                     |
e|----------------------------------------------------------------|
B|----------------------------------------------------------------|
G|----------------------------------------------------------------|
D|--7---7---7---7---7---7---7---7---7---7---7---7---7---7---7---7-|
A|7---7---7---7---7---7---7---7---7---7---7---7---7---7---7---7---|
E|----------------------------------------------------------------|

~VERSE~

 |acoustic 1|
e|----------------------------------------------------------------|
B|----3-------3-------3-------3-------3-------3-------3------(3)--|
G|--2-------0-------2-------4-------3-------2-------0------(2)----|
D|0-------0-------0-------0-------0-------0-------0-------0-------|X[2]
A|----------------------------------------------------------------|
E|----------------------------------------------------------------|
 |acoustic 2|                                                     |
e|----------------------------------------------------------------|
B|----------------------------------------------------------------|
G|----------------------------------------------------------------|
D|----7-------7-------7-------10------10------7-------7------(5)--|X[2]
A|--7-------7-------7-------10------10------7-------7------(5)----|
E|9-------8-------9-------11------10------9-------8-------3-------|
When life has me vexed I stop thinking clearly I can get so afraid that I
                           push her away
Repentance is next I miss her so dearly see those nights are the days when
                          my love is away

~ REPEAT CHORUS ~

~BRIDGE~
  Am      C       Em                      G       C
 |acoustic 2|
e|0-0-0-0-0-0-0-0-0-0-0-0-0-0-0-0-0-0-0-0-3-3-3-3-0-0-0-0-0-0-0-0-|
B|1-1-1-1-1-1-1-1-0-0-0-0-0-0-0-0-0-0-0-0-3-3-3-3-1-1-1-1-1-1-1-1-|
G|2-2-2-2-0-0-0-0-0-0-0-0-0-0-0-0-0-0-0-0-0-0-0-0-0-0-0-0-0-0-0-0-|
D|2-2-2-2-2-2-2-2-2-2-2-2-2-2-2-2-2-2-2-2-0-0-0-0-2-2-2-2-2-2-2-2-|X[2]
A|0-0-0-0-3-3-3-3-2-2-2-2-2-2-2-2-2-2-2-2-2-2-2-2-3-3-3-3-3-3-3-3-|
E|----------------0-0-0-0-0-0-0-0-0-0-0-0-0-0-0-0-----------------|
I'm waiting for the day when I am on her mind I'm waiting for the day when
  G               E
 |acoustic 2|
e|3-3-3-3-3-3-3-3-0-----------------------------------------------|
B|3-3-3-3-3-3-3-3-0-----------------------------------------------|
G|0-0-0-0-0-0-0-0-1-----------------------------------------------|
D|0-0-0-0-0-0-0-0-2-----------------------------------------------|
A|2-2-2-2-2-2-2-2-2-----------------------------------------------|
E|0-0-0-0-0-0-0-0-0-----------------------------------------------|
Love's no longer blind
                                  E           build up
 |acoustic 2|                     P.M - - - - - - - - - - - - - - |
e|--------------------------------0-0-0-0-0-0-0-0-0-0-0-0-0-0-0-0-|
B|--------------------------------0-0-0-0-0-0-0-0-0-0-0-0-0-0-0-0-|
G|--------------------------------1-1-1-1-1-1-1-1-1-1-1-1-1-1-1-1-|
D|--------------------------------2-2-2-2-2-2-2-2-2-2-2-2-2-2-2-2-|
A|--------------------------------2-2-2-2-2-2-2-2-2-2-2-2-2-2-2-2-|
E|--------------------------------0-0-0-0-0-0-0-0-0-0-0-0-0-0-0-0-|
  when she's near when she's near when she's near when she's near

~CHORUS~


  A       C#m     F#m     C#m     A       F       C       E
 |acoustic 2|
e|0-0-0-0-4-4-4-4-2-2-2-2-4-4-4-4-0-0-0-0-1-1-1-1-0-0-0-0-0-0-0-0-|
B|2-2-2-2-5-5-5-5-2-2-2-2-5-5-5-5-2-2-2-2-1-1-1-1-1-1-1-1-0-0-0-0-|
G|2-2-2-2-6-6-6-6-2-2-2-2-6-6-6-6-2-2-2-2-2-2-2-2-0-0-0-0-1-1-1-1-|
D|2-2-2-2-6-6-6-6-4-4-4-4-6-6-6-6-2-2-2-2-3-3-3-3-2-2-2-2-2-2-2-2-|
A|0-0-0-0-4-4-4-4-4-4-4-4-4-4-4-4-0-0-0-0-3-3-3-3-3-3-3-3-2-2-2-2-|
E|----------------2-2-2-2-----------------1-1-1-1---------0-0-0-0-|
When she's near the new year's here and there is not a resolution that I
                               can't do
  A       C#m     F#m     C#m     F       E       F#m
 |acoustic 2|
e|0-0-0-0-4-4-4-4-2-2-2-2-4-4-4-4-1-1-1-1-0-0-0-0-2-2-2-2-2-2-2-2-|
B|2-2-2-2-5-5-5-5-2-2-2-2-5-5-5-5-1-1-1-1-0-0-0-0-2-2-2-2-2-2-2-2-|
G|2-2-2-2-6-6-6-6-2-2-2-2-6-6-6-6-2-2-2-2-1-1-1-1-2-2-2-2-2-2-2-2-|
D|2-2-2-2-6-6-6-6-4-4-4-4-6-6-6-6-3-3-3-3-2-2-2-2-4-4-4-4-4-4-4-4-|
A|0-0-0-0-4-4-4-4-4-4-4-4-4-4-4-4-3-3-3-3-2-2-2-2-4-4-4-4-4-4-4-4-|
E|----------------2-2-2-2---------1-1-1-1-0-0-0-0-2-2-2-2-2-2-2-2-|
I see things clearly when she's near me when she's near me all the world is
                            new when she's
  F       E       A
 |acoustic 2|
e|1-1-1-1-0-0-0-0-0-----------------------------------------------|
B|1-1-1-1-0-0-0-0-2-----------------------------------------------|
G|2-2-2-2-1-1-1-1-2-----------------------------------------------|
D|3-3-3-3-2-2-2-2-2-----------------------------------------------|
A|3-3-3-3-2-2-2-2-0-----------------------------------------------|
E|1-1-1-1-0-0-0-0-------------------------------------------------|
                   Near me all the world is new

~OUTRO~

 |acoustic 1|
e|----0-------0-------0-------0-------0-------0-------0-------0---|0---|
B|----------------------------------------------------------------|0---|
G|1-------2-------1-------2-------1-------2-------3-------2-------|1---|
D|2-------2-------2-------2-------2-------2-------2-------2-------|2---|
A|----------------------------------------------------------------|----|
E|----------------------------------------------------------------|----|
 |acoustic 2|                                                     |    |
e|----------------------------------------------------------------|----|
B|----------------------------------------------------------------|----|
G|----------------------------------------------------------------|----|
D|7---7---7---7---7---7---7---7---7---7---7---7---7---7---7---7---|----|
A|----------------------------------------------------------------|----|
E|----------------------------------------------------------------|----|
                   When she's near me all the world is new
=============================================================================
I hope you enjoy this tab and that it was easy to follow. If for any reason
you did enjoy this tab, a rating would be appreciated. Thanks

Peace, Love, I'm out.
comments
We did not receive enough feedback on this tab! Please rate:
print report bad tab
1 2 3 4 5
2 comments total.
+1 reply
kylestoughton 131 wrote on January 26 2016, 07:23 pm

This is a great tab. The only thing I think may be different is the chorus might end with F E A instead of A F A. But again, awesome tab!

+1 reply
hurricaneherman 2,717 wrote on January 30 2016, 06:15 pm

Thank you for pointing that out, I do believe you are correct! :)

I want to post or [tab]
guest
You may want to rate the tab now too:
select rating
Please do not post tabs as comments. Select "correction" instead!