Oops, an error
Loading. Please wait.

Out Of My Face Tab

version 1
version 1

Solo

Whole song

305 views 1 this week
no commentswrite comment
1 2 3 4 5
2 more votes to show rating
add to favorites
launch autoscroll
font size
0
reset
how to read this tab
guitar tuner
Autoscroll
slow
fast
+/-
esc
set tempo
stop
Help us to improve Ultimate-Guitar.com Take our survey!
×
Author
Difficulty
Tabbed By: Belavista Man
On: 20/05/2012

By request of somebody who left a comment on my tab for the chords to this song, 
here's Seton's solo from Out Of My Face (from the album 'Sparks').

  (C#m)       C#m         .       .       .         B       .       .      .
e|-----------|------------------------------------|-------------------------¦
B|-/10-10-10-|-10-10-10-9-9-9-9-7-7-7-7-5-5-9-9-9-|-9-9-9-7-7-7-7-4-4-4-4---¦
G|-----------|------------------------------------|----------------------4-4¦
D|-----------|------------------------------------|-------------------------¦
A|-----------|------------------------------------|-------------------------¦
E|-----------|------------------------------------|-------------------------¦

              A          .       F#m     .         C#m     .       .
e|----------|------------------------------------|------------------------¦
B|-10-10-10-|-10-10-10-9-9-9-9-5-5-5-5-----------|-------------------9/10-¦
G|----------|--------------------------6-6-6-6-6-|-6-6-6-6-6-6-6-6-6------¦
D|----------|------------------------------------|------------------------¦
A|----------|------------------------------------|------------------------¦
E|----------|------------------------------------|------------------------¦

                 C#m        .       .       .         B       .       .
e|-12----12----|------------------------------------|-----------------------¦
B|----10----10-|-10-10-10-9-9-9-9-7-7-7-7-5-5-9-9-9-|-9-9-9-7-7-7-7-4-4-4-4-¦
G|-------------|------------------------------------|-----------------------¦
D|-------------|------------------------------------|-----------------------¦
A|-------------|------------------------------------|-----------------------¦
E|-------------|------------------------------------|-----------------------¦

     .            A          .        F#m        .       .
e|--------------|---------------------------------------------12-----12-¦
B|-----10-10-10-|-10-10-10-9-9-9-9-12-12-12-12-5-5-5-5-5-9/10---10-9----¦
G|-4-4----------|-------------------------------------------------------¦
D|--------------|-------------------------------------------------------¦
A|--------------|-------------------------------------------------------¦
E|--------------|-------------------------------------------------------¦

   .
e|------12------|
B|-9/10----10-9-|
G|--------------|
D|--------------|
A|--------------|
E|--------------|
Suggest correction
Give kudos to tab author, rate the tab!
1 2 3 4 5
comments
print report bad tab
guest
You may want to rate the tab now too:
select rating
Wanna post a correction for this tab? Suggest correction