Oops, an error
Loading. Please wait.

Todo Porque Te Amo tab

version 2
version 2

Whole song

32 views 1 this week
no commentswrite comment
1 2 3 4 5
3 more votes to show rating
add to favorites
×
Save as Personal and add changes to this tab that will be seen only by you. Learn more ›
×
You can save this tab as Personal to edit and correct it or add notes. All changes will be seen only by you. Learn more »
launch autoscroll
font size
0
reset
how to read this tab
guitar tuner
edit
Autoscroll
slow
fast
+/-
esc
set tempo
stop
Hola!! Comunidad de  aquí les
dejo mi primera transcripción, creo yo
que con esos acordes se escucha bien, para
todos aquellos que están enamorados por una
chica así como yo, Te Quiero un chingo Sandra Yimel!!.. hay la saque
para cantársela y compartirlas con ustedes
para que también hagan lo mismo, disfrútenla y Gracias.. XD

INTRO TROMPETA
    E       B             A         E
e|-----------------------------------------------|
B|--5-5-5-5-5-4-2-4-2-0---2-0-----2-1-0---0------|
G|----------------------------2---------2--------|
D|------------------------------------------2----|
A|-----------------------------------------------|
E|-----------------------------------------------|

   A        E     A         E                       B    E
e|------------------------------------------------------------|
B|-2-2-2-2-4-5-5/0---2-2-2-2-4-5p4-5p4-5p4----5p4-5p4-5p4-5-7-|
G|------------------------------------------------------------|
D|------------------------------------------------------------|
A|------------------------------------------------------------|
E|------------------------------------------------------------|


                   B                  A
Ni por la mente me pasa cambiarte por otra
               E                           B
por que tu me encantas, me gusta verte con ropa
              A                E
pero mas sin ella cuando te levantas
               B                         A
es tan bonito pensar que tu piensas lo mismo
               E
que yo estoy pensando
                   B                    A                 E
por que los dos compartimos el mismo idioma a la hora de amarnos


PRE-CORO
G#                     C#m   A           E
No tengo ojos para nadieeee,  solo para ti
G#                     C#m  A             E   A
Mi corazón te perteneceee,   yo ya te lo di
                  E
cuando llegaste a mi.


CORO
                   B              A                E   A
invierto todo mi tiempo y mis energías en verte feliz
                   E     A                    B    E
me gusta cuando me miras,   me gusta hacerte reír
                     B                  A
por ti me olvido de todo, tu atrapas mi mente
               E   A                    E     A
y toda mi atención,  mi vicio es complacerte
              B                          E
a donde vayas yo voy, y todo por que te amo


PUENTE:

    E       B             A         E
e|-----------------------------------------------|
B|--5-5-5-5-5-4-2-4-2-0---2-0-----2-1-0---0------|
G|----------------------------2---------2--------|
D|------------------------------------------2----|
A|-----------------------------------------------|
E|-----------------------------------------------|

   A        E           G#          C#m      G#
e|-------------------------------0-4-2-0-2---4-2-0---|
B|-2-2-2-2-4-5-5/0---0-2-0---0-2-------------------4-|
G|-------------------------2-------------------------|
D|---------------------------------------------------|
A|---------------------------------------------------|
E|---------------------------------------------------|


PRE-CORO
CORO

FINAL
A                  E   A
y todo por que te amo
                   E   A  E  B  E
y todo por que te amo

            
            
Suggest correction
Creating personal tab
Creating personal tab
You can edit any tab online and save it as your Personal.

You can edit, replace or remove any tab part or add personal notes – all changes will be seen only by you.

Personal tabs can be accessed anytime from any device, even offline.
Learn more »
Give kudos to tab author, rate the tab!
1 2 3 4 5
comments
print report bad tab
guest
Wanna post a correction for this tab? Suggest correction