Oops, an error
Loading. Please wait.

40Oz On Repeat bass

by FIDLAR
6,251 views 54 this week
no commentswrite comment
1 2 3 4 5
x 7
add to favorites
×
Save as Personal and add changes to this tab that will be seen only by you. Learn more ›
×
You can save this tab as Personal to edit and correct it or add notes. All changes will be seen only by you. Learn more »
launch autoscroll
font size
0
reset
guitar tuner
edit
Autoscroll
slow
fast
+/-
esc
set tempo
stop
40oz On Repeat - FIDLAR
Tabbed by: Sam Hough
E-mail: samhough1997@gmail.com
[Tuning: STANDARD]

[Intro]
G|---------------------------------------------------------------------------|
D|---------------------------------------------------------------------------|
A|-5--------------5----5--------------55--55--55--55--55--55--55-------------|
E|------7----3--------------7----3-------------------------------------------|

I don't know why it's so difficult....
G|---------------------------------------------------------------------------|
D|--------------------------------------------------------------444----------|
A|-55--55------------------55--55--55--55------------------55--5---55--55----|
E|---------77--77--33--33--------57--------77--77--33--33--------------------|

G|---------------------------------------------------------------------------|
D|-------------------------------------------------------34------------------|
A|---------------0255--502055--55------------------55--5---------------------|
E|-77--77--33--33------------------77--77--33--33----------------------------|

Because everybody's got somebody...
G|---------------------------------------------------------------------------|
D|---------------------------------------------------------------------------|
A|---------------------------------------------------------------------------|
E|---------------------------------------------------------------------------|

Repeat peat peat peat...
G|---------------------------------------------------------------------------|
D|---------------------------------------------------------------------------|
A|-5--5--5--5--55--55--55----------------------------------------------------|
E|---------------------------------------------------------------------------|

I thought that if I cleaned up my act...
G|---------------------------------------------------------------------------|
D|--------------------------------------------------------------444------242-|
A|-55--55------------------55--502055--55------------------55--5---55--55----|
E|---------77--77--33--33------------------77--77--33--33--------------------|

G|---------------------------------------------------------------------------|
D|----------------------------------242--------------------------------------|
A|-------575---------55--5502055--55---------------------5-------------------|
E|-77--77---33--33557------------------77--7775533--33357--------------------|

Because everybody's got more money...
G|---------------------------------------------------------------------------|
D|---------------------------------------------------------------------------|
A|---------------------------------------------------------------------------|
E|---------------------------------------------------------------------------|

Because everybody's got somebody...
G|---------------------------------------------------------------------------|
D|-55555557--------55555557------7655555555----------------------------------|
A|---------55555555--------555555----------55555555777777770-----------------|
E|---------------------------------------------------------------------------|

I'm gonna lock myself...
G|---------------------------------------------------------------------------|
D|---------------------------------------------------------------------------|
A|---------------------------------------------------------------------------|
E|---------------------------------------------------------------------------|

Repeat peat peat peat...
G|---------------------------------------------------------------------------|
D|---------------------------------------------------------------------------|
A|-5--5--5--5--5--5--5--55---------------------------------------------------|
E|---------------------------------------------------------------------------|

Because everybody's got somebody...
G|---------------------------------------------------------------------------|
D|-55555555--------55555555--------55555557----------------------------------|
A|---------55555555--------55555555--------555555557777777700000000----------|
E|---------------------------------------------------------------------------|

G|---------------------------------------------------------------------------|
D|-55555557-------755555557-------755555557----------------77777777----------|
A|---------5555555---------5555555---------555555--77777777------------------|
E|-----------------------------------------------75--------------------------|

[Solo]
G|---------------------------------------------------------------------------|
D|-55555557-------755555557-------755555557----------------777777770---------|
A|---------5555555---------5555555---------555555--77777777------------------|
E|-----------------------------------------------75--------------------------|

Repeat peat peat peat...
G|---------------------------------------------------------------------------|
D|---------------------------------------------------------------------------|
A|-5--5--5--5--5--555555555555---------5-------------------------------------|
E|---------------------------------------------------------------------------|

            
            
Suggest correction
Creating personal tab
Creating personal tab
You can edit any tab online and save it as your Personal.

You can edit, replace or remove any tab part or add personal notes – all changes will be seen only by you.

Personal tabs can be accessed anytime from any device, even offline.
Learn more »
comments
print report bad tab
guest
You may want to rate the tab now too:
select rating
Wanna post a correction for this tab? Suggest correction