Oops, an error
Loading. Please wait.

Alcoholic Tab

34 views 3 this week
no commentswrite comment
1 2 3 4 5
3 more votes to show rating
add to favorites
launch autoscroll
font size
0
reset
how to read this tab
guitar tuner
Autoscroll
slow
fast
+/-
esc
set tempo
stop
Help us to improve Ultimate-Guitar.com Take our survey!
×
Author
Watch the video: https://www.youtube.com/watch?v=ben8hBUTkxM to figure out where to mute

[Verse]
e|----------------------------------------------|
B|----------------------------------------------|
G|------------------------7---------------------|
D|------7--------4--------7--------9------------|
A|------7--------4--------5--------9------------|
E|------5--------2-----------------7------------|

e|----------------------------------------------|
B|---------------2------------------------------|
G|---------------3--------7--------9------------|
D|------7--------4--------7--------9------------|
A|------7--------4--------5--------7------------|
E|------5--------2------------------------------|

[Chorus]
e|----------------------------------------------|
B|----------------------------------------------|
G|------------------------7---------------------|
D|------7--------11-------7--------9------------|
A|------7--------11-------5--------9------------|
E|------5--------9-----------------7------------|

[Bridge]
e|----------------------------------------------|
B|------------------7--9------------------------|
G|---------------9------------------------------|
D|------7---------------------------------------|
A|------7---------------------------------------|
E|------5---------------------------------------|

[Verse]
e|----------------------------------------------|
B|----------------------------------------------|
G|------------------------7---------------------|
D|------7--------4--------7--------9------------|
A|------7--------4--------5--------9------------|
E|------5--------2-----------------7------------|

e|----------------------------------------------|
B|---------------2------------------------------|
G|---------------3--------7--------9------------|
D|------7--------4--------7--------9------------|
A|------7--------4--------5--------7------------|
E|------5--------2------------------------------|

[Chorus]
e|----------------------------------------------|
B|----------------------------------------------|
G|------------------------7--------9------------|
D|------7--------11-------7--------9------------| x2
A|------7--------11-------5--------7------------|
E|------5--------9------------------------------|

e|----------------------------------------------|
B|----------------------------------------------|
G|----------------------------------------------|
D|------7--7-7-7-7-7-7-7------------------------|
A|------7--7-7-7-7-7-7-7------------------------|
E|------5--5-5-5-5-5-5-5------------------------|
Suggest correction
Give kudos to tab author, rate the tab!
1 2 3 4 5
comments
print report bad tab
guest
You may want to rate the tab now too:
select rating
Wanna post a correction for this tab? Suggest correction