Oops, an error
Loading. Please wait.

Blackout Stout Bass Tab

58 views 9 this week
no commentswrite comment
1 2 3 4 5
3 more votes to show rating
add to favorites
launch autoscroll
font size
0
reset
guitar tuner
Autoscroll
slow
fast
+/-
esc
set tempo
stop
Help us to improve Ultimate-Guitar.com Take our survey!
×
[Verse]

G|---------------------------------------------------------------------------|
D|---------------------------------------------------------------------------|
A|-5-5-5-5---------------------------5-5-5-5-------------------------3-------|
E|---------5-5-5-5-3-3-3-3-3-3-3-3-3---------5-5-5-5-3-3-3-3-3-3-3-5---------|

[Chorus]

G|---------------------------------------------------------------------------|
D|---------------------------------------------------------------------------|
A|-5-5-5-5---------------------------5-5-5-5-------------------------3-------|
E|---------5-5-5-5-3-3-3-3-3-3-3-3-3---------5-5-5-5-3-3-3-3-3-3-3-5---------|


[Verse]

G|---------------------------------------------------------------------------|
D|---------------------------------------------------------------------------|
A|-5-5-5-5---------------------------5-5-5-5-------------------------3-------|
E|---------5-5-5-5-3-3-3-3-3-3-3-3-3---------5-5-5-5-3-3-3-3-3-3-3-5---------|

G|---------------------------------------------------------------------------|
D|---------------------------------------------------------------------------|
A|-5-5-5-5---------------------------5-5-5-5-------------------------3-------|
E|---------5-5-5-5-3-3-3-3-3-3-3-3-3---------5-5-5-5-3-3-3-3-3-3-3-5---------|

[Chorus]

G|---------------------------------------------------------------------------|
D|---------------------------------------------------------------------------|
A|-5-5-5-5---------------------------5-5-5-5-------------------------3-------|
E|---------5-5-5-5-3-3-3-3-3-3-3-3-3---------5-5-5-5-3-3-3-3-3-3-3-5---------|

G|---------------------------------------------------------------------------|
D|---------------------------------------------------------------------------|
A|-5-5-5-5---------------------------5-5-5-5-------------------------3-------|
E|---------5-5-5-5-3-3-3-3-3-3-3-3-3---------5-5-5-5-3-3-3-3-3-3-3-5---------|

[Bridge]

G|---------------------------------------------------------------------------|
D|---------------------------------------------------------------------------|
A|-5-------------------------5-----------------------3-----------------------|
E|-------5------3------3-----------5-----3----1h3----------------------------|

G|---------------------------------------------------------------------------|
D|---------------------------------------------------------------------------|
A|-5-5-5-5-------------------------3-5-5-5-5-------------------------3-------|
E|---------5-5-5-5-3-3-3-3-3-3-3-5-----------5-5-5-5-3-3-3-3-3-3-3-5---------|

G|---------------------------------------------------------------------------|
D|---------------------------------------------------------------------------|
A|-5-5-5-5-------------------------3-5-5-5-5-------------------------3-------|
E|---------5-5-5-5-3-3-3-3-3-3-3-5-----------5-5-5-5-3-3-3-3-3-3-3-5---------|

[Chorus]

G|---------------------------------------------------------------------------|
D|---------------------------------------------------------------------------|
A|-5-5-5-5---------------------------5-5-5-5-------------------------3-------|
E|---------5-5-5-5-3-3-3-3-3-3-3-3-3---------5-5-5-5-3-3-3-3-3-3-3-5---------|

G|---------------------------------------------------------------------------|
D|---------------------------------------------------------------------------|
A|-5-5-5-5---------------------------5-5-5-5-------------------------3-------|
E|---------5-5-5-5-3-3-3-3-3-3-3-3-3---------5-5-5-5-3-3-3-3-3-3-3-5---------|

[Outro]

G|---------------------------------------------------------------------------|
D|---------------------------------------------------------------------------|
A|-5-----------------------------5-------------------------------------------|
E|--------5-------3-------3-------------5-------3-------3-3-3-3-3-3-3--------|

G|---------------------------------------------------------------------------|
D|---------------------------------------------------------------------------|
A|-5-5-5-5---------------------------5-5-5-5-------------------------3-------|
E|---------5-5-5-5-3-3-3-3-3-3-3-3-3---------5-5-5-5-3-3-3-3-3-3-3-5---------|

G|---------------------------------------------------------------------------|
D|---------------------------------------------------------------5-----------|
A|-5-5-5-5---------------------------5-5-5-5-----------------------8-7-6-5---|
E|---------5-5-5-5-3-3-3-3-3-3-3-3-3---------5-5-5-5-3-3-3-3-3-3-------------|

************************************
| h   Hammer-on
Suggest correction
Give kudos to tab author, rate the tab!
1 2 3 4 5
comments
print report bad tab
guest
You may want to rate the tab now too:
select rating
Wanna post a correction for this tab? Suggest correction