Oops, an error
Loading. Please wait.

Bloody Nose tab

by FIDLAR
715 views 6 this week
no commentswrite comment
1 2 3 4 5
x 5
add to favorites
×
Save as Personal and add changes to this tab that will be seen only by you. Learn more ›
×
You can save this tab as Personal to edit and correct it or add notes. All changes will be seen only by you. Learn more »
launch autoscroll
font size
0
reset
how to read this tab
guitar tuner
edit
Autoscroll
slow
fast
+/-
esc
set tempo
stop
This tab should be a good guideline to go by. It may not be 100% but it should be close.


[Guitar 1]

    C     Am    C     Am   Gm     C     Am    E

e|--0-----0-----0-----0-----3-----0-----0-----0-----------------|
B|--1-----1-----1-----1-----3-----1-----1-----0-----------------|
G|--0-----2-----0-----2-----0-----0-----2-----1-----------------|
D|--2-----2-----2-----2-----0-----2-----2-----2-----------------|
A|--3-----0-----3-----0-----2-----3-----0-----2-----------------|
E|--------------------------3-----------------0-----------------|



[Guitar 2]

   C

e|--------------------------------------------------------------|
B|---1---1-------1----1-----1----1---1----1---------------------|
G|---------0------------0----------0----------------------------|
D|-----2------------2----------2------------2-------------------|
A|-3----------3-----------3-------------3------3-2--------------|
E|--------------------------------------------------------------|

   Am

e|--------------------------------------------------------------|
B|---1---1-------1----1-----1----1---1----1---------------------|
G|---------2------------2----------2----------------------------|
D|-----2------------2----------2------------2-------------------|
A|-0----------0-----------0-------------0------2-3--------------|
E|--------------------------------------------------------------|

   C

e|--------------------------------------------------------------|
B|---1---1-------1----1-----1----1---1----1---------------------|
G|---------0------------0----------0----------------------------|
D|-----2------------2----------2------------2-------------------|
A|-3----------3-----------3-------------3------3-2--------------|
E|--------------------------------------------------------------|

   Am

e|--------------------------------------------------------------|
B|---1---1-------1----1-----1----1-------1----1-----------------|
G|---------2------------2----------2-------------2--------------|
D|-----2------------2----------2------------2-------------------|
A|-0----------0-----------0------------0------------------------|
E|--------------------------------------------------------------|

  Gm                       C

e|--------------------------------------------------------------|
B|-----3---3-----3---3-------1----1-------1----1----------------|
G|-----------0---------0------------0-------------0-------------|
D|-----------------------------2------------2-------------------|
A|-2-----------------------3----------3-------------------------|
E|---3---3----3----3--------------------------------------------|

  Am                               E

e|--------------------------------------------------------------|
B|---1---1-----1---1------1---1-----0---0-----0---0-----0---0---|
G|---------2---------2----------2---------1---------1---------1-|
D|-----2---------2----------2-----------------------------------|
A|-0---------0----------0-------------2---------2---------2-----|
E|--------------------------------0---------0---------0---------|


[Verse]

     C         
Tell me a lie, tell me a story.
   Am
Tell me anything, don't you worry.
  C 
Tell me about the booze and the Bowery,
 Am
And all about the drugs in the morning.


[Chorus]

 Gm                 C
I've seen your face before,
                  Am
Though I didn't recognize
                        E
'Til you walked out the door.
  Gm                    C
And I've seen that face before,
                       Am
Now I'll always wonder why,
                     E
It don't know me anymore.


[Verse]

  C
We'll take the car down the highways,
   Am
We won't get fooled by the bad days.
   C
And all the money we took from the last one,
   Am
Clean your bloody nose in the bathroom.


[Chorus]

 Gm                   C
I've seen your face before,
                    Am
Though I didn't recognize
                        E
'Til you walked out the door.
  Gm                     C
And I've seen that face before,
                       Am
Now I'll always wonder why,
               E
Don't know me anymore.


 Gm                   C
I've seen your face before,
                    Am
Though I didn't recognize
                        E
'Til you walked out the door.
  Gm                     C
And I've seen that face before,
                       Am
Now I'll always wonder why,
               E
Don't know me anymore.



   C

e|--------------------------------------------------------------|
B|---1---1-------1----1-----1----1---1----1---------------------|
G|---------0------------0----------0----------------------------|
D|-----2------------2----------2------------2-------------------|
A|-3----------3-----------3-------------3------3-2--------------|
E|--------------------------------------------------------------|

   Am

e|--------------------------------------------------------------|
B|---1---1-------1----1-----1----1---1----1---------------------|
G|---------2------------2----------2----------------------------|
D|-----2------------2----------2------------2-------------------|
A|-0----------0-----------0-------------0------2-3--------------|
E|--------------------------------------------------------------|

   C

e|--------------------------------------------------------------|
B|---1---1-------1----1-----1----1---1----1---------------------|
G|---------0------------0----------0----------------------------|
D|-----2------------2----------2------------2-------------------|
A|-3----------3-----------3-------------3------3-2--------------|
E|--------------------------------------------------------------|

   Am

e|--------------------------------------------------------------|
B|---1---1-------1----1-----1----1---1----1---------------------|
G|---------2------------2----------2----------------------------|
D|-----2------------2----------2------------2-------------------|
A|-0----------0-----------0-------------0------2-3--------------|
E|--------------------------------------------------------------|

   C

e|--------------------------------------------------------------|
B|---1---1-------1----1-----1----1---1----1---------------------|
G|---------0------------0----------0----------------------------|
D|-----2------------2----------2------------2-------------------|
A|-3----------3-----------3-------------3------3-2--------------|
E|--------------------------------------------------------------|

   Am

e|--------------------------------------------------------------|
B|---1---1-------1----1-----1----1---1----1---------------------|
G|---------2------------2----------2----------------------------|
D|-----2------------2----------2------------2-------------------|
A|-0----------0-----------0-------------0------2-3--------------|
E|--------------------------------------------------------------|

   C

e|--------------------------------------------------------------|
B|---1---1-------1----1-----1----1---1----1---------------------|
G|---------0------------0----------0----------------------------|
D|-----2------------2----------2------------2-------------------|
A|-3----------3-----------3-------------3------3-2--------------|
E|--------------------------------------------------------------|

   Am

e|--------------------------------------------------------------|
B|---1---1-------1----1-----1----1---1----1---------------------|
G|---------2------------2----------2----------------------------|
D|-----2------------2----------2------------2-------------------|
A|-0----------0-----------0-------------0------2-3--------------|
E|--------------------------------------------------------------|
Suggest correction
Creating personal tab
Creating personal tab
You can edit any tab online and save it as your Personal.

You can edit, replace or remove any tab part or add personal notes – all changes will be seen only by you.

Personal tabs can be accessed anytime from any device, even offline.
Learn more »
comments
print report bad tab
guest
You may want to rate the tab now too:
select rating
Wanna post a correction for this tab? Suggest correction