Oops, an error
Loading. Please wait.

Drone Bass Tab

160 views 15 this week
no commentswrite comment
1 2 3 4 5
3 more votes to show rating
add to favorites
launch autoscroll
font size
0
reset
guitar tuner
Autoscroll
slow
fast
+/-
esc
set tempo
stop
Help us to improve Ultimate-Guitar.com Take our survey!
×
[Intro]

G|-------------------------------|----------------------------------|
D|-------------------------------|----------------------------------|
A|-----------------7-7-7-12-7-7--|-----------------7-7-7-12-7-7-----|
E|-6h7-7-7-6h7-7-7---------------|-6h7-7-7-6h7-7-7------------------|

G|-------------------------------|----------------------------------|
D|-------------------------------|----------------------------------|
A|-----------------7-7-7-12-7-7--|-----------------7-7-7-12-7-7-----|
E|-6h7-7-7-6h7-7-7---------------|-6h7-7-7-6h7-7-7------------------|


[Verse]

G|-------------------------------|----------------------------------|
D|-------------------------------|----------------------------------|
A|-----------------7-7-7-12-7-7--|-----------------7-7-7-12-7-7-----|
E|-6h7-7-7-6h7-7-7---------------|-6h7-7-7-6h7-7-7------------------|

G|-------------------------------|----------------------------------|
D|---9-----9-7-------------------|---9-----9-7----------------------|
A|-----7h9-----9-7-7-7-7-12-7-7--|-----7h9-----9-7--7-7-7-12-7-7----|
E|-7-----------------------------|-7--------------------------------|

[Chorus]

G|---------------------------------------------------------------------------|
D|---------------------------------------------------------------------------|
A|---------------------------------------------------------------------------|
E|-5-5-5-5-5-5-5-5-5-5-5-5-5-5-5-7-7-7-7-7-7-7-7-7-7-7-7-7-7-7---------------|

G|--------------------------------|
D|--------------------------------|
A|--------------------------------|
E|-5-5-5-5-5-5-5-5-5-5-5-5-5-5-5--|

G|-------------------------------|----------------------------------|
D|-------------------------------|----------------------------------|
A|-----------------7-7-7-12-7-7--|-----------------7-7-7-12-7-7-----|
E|-6h7-7-7-6h7-7-7---------------|-6h7-7-7-6h7-7-7------------------|

[Verse]

G|-------------------------------|----------------------------------|
D|-------------------------------|----------------------------------|
A|-----------------7-7-7-12-7-7--|-----------------7-7-7-12-7-7-----|
E|-6h7-7-7-6h7-7-7---------------|-6h7-7-7-6h7-7-7------------------|

G|-------------------------------|----------------------------------|
D|---9-----9-7-------------------|---9-----9-7----------------------|
A|-----7h9-----9-7-7-7-7-12-7-7--|-----7h9-----9-7--7-7-7-12-7-7----|
E|-7-----------------------------|-7--------------------------------|

[Chorus]

G|---------------------------------------------------------------------------|
D|---------------------------------------------------------------------------|
A|---------------------------------------------------------------------------|
E|-5-5-5-5-5-5-5-5-5-5-5-5-5-5-5-7-7-7-7-7-7-7-7-7-7-7-7-7-7-7---------------|

G|--------------------------------|
D|--------------------------------|
A|--------------------------------|
E|-5-5-5-5-5-5-5-5-5-5-5-5-5-5-5--|

G|-------------------------------|----------------------------------|
D|-------------------------------|----------------------------------|
A|-----------------7-7-7-12-7-7--|-----------------7-7-7-12-7-7-----|
E|-6h7-7-7-6h7-7-7---------------|-6h7-7-7-6h7-7-7------------------|

[Solo]

G|-------------------------------|----------------------------------|
D|-------------------------------|----------------------------------|
A|-----------------7-7-7-12-7-7--|-----------------7-7-7-12-7-7-----|
E|-6h7-7-7-6h7-7-7---------------|-6h7-7-7-6h7-7-7------------------|

G|-------------------------------|----------------------------------|
D|---9-----9-7-------------------|---9-----9-7----------------------|
A|-----7h9-----9-7-7-7-7-12-7-7--|-----7h9-----9-7--7-7-7-12-7-7----|
E|-7-----------------------------|-7--------------------------------|

BRIDGE

G|----------------------------------------------------------|
D|----------------------------------------------------------|
A|--10----7---8---5-----------------------------------------|
E|-----10-------8----6h7-7-7-6h7-7-7-6h7-7-7-6h7-7-7--------|

G|--------------------|
D|--------------------|
A|--10----7---8---5---|
E|-----10-------8-----|

G|-------------------------------|----------------------------------|
D|-------------------------------|----------------------------------|
A|-----------------7-7-7-12-7-7--|-----------------7-7-7-12-7-7-----|
E|-6h7-7-7-6h7-7-7---------------|-6h7-7-7-6h7-7-7------------------|

BREAKDOWN

G|-------------------------------|----------------------------------|
D|-------------------------------|----------------------------------|
A|-----------------7-7-7-12-7-7--|-----------------7-7-7-12-7-7-----|
E|-6h7-7-7-6h7-7-7---------------|-6h7-7-7-6h7-7-7------------------|

G|-------------------------------|----------------------------------|
D|-------------------------------|----------------------------------|
A|-----------------7-7-7-12-7-7--|-----------------7-7-7-12-7-7-----|
E|-6h7-7-7-6h7-7-7---------------|-6h7-7-7-6h7-7-7------------------|

G|-------------------------------|----------------------------------|
D|-------------------------------|----------------------------------|
A|-----------------7-7-7-12-7-7--|-----------------7-7-7-12-7-7-----|
E|-6h7-7-7-6h7-7-7---------------|-6h7-7-7-6h7-7-7------------------|

G|-------------------------------|----------------------------------|
D|-------------------------------|----------------------------------|
A|-----------------7-7-7-12-7-7--|-----------------7-7-7-12-7-7-----|
E|-6h7-7-7-6h7-7-7---------------|-6h7-7-7-6h7-7-7------------------|

G|-------------------------------|----------------------------------|
D|-------------------------------|----------------------------------|
A|-----------------7-7-7-12-7-7--|-----------------7-7-7-12-7-7-----|
E|-6h7-7-7-6h7-7-7---------------|-6h7-7-7-6h7-7-7------------------|

G|---------------------------------------------------------------------------|
D|---------------------------------------------------------------------------|
A|---------------------------------------------------------------------------|
E|-5-5-5-5-5-5-5-5-5-5-5-5-5-5-5-7-7-7-7-7-7-7-7-7-7-7-7-7-7-7---------------|

G|---------------------------------------------------------------------------|
D|---------------------------------------------------------------------------|
A|---------------------------------------------------------------------------|
E|-5-5-5-5-5-5-5-5-5-5-5-5-5-5-5-7-7-7-7-7-7-7-7-7-7-7-7-7-7-7---------------|

[Outro]

G|---------------------------------------------------------------------------|
D|---------------------------------------------------------------------------|
A|---------------------------------------------------------------------------|
E|-5-5-5-5-5-5-5-5-5-5-5-5-5-5-5-7-7-7-7-7-7-7-7-7-7-7-7-7-7-7---------------|

G|--------------------------------|
D|--------------------------------|
A|--------------------------------|
E|-5-5-5-5-5-5-5-5-5-5-5-5-5-5-5--|

G|-------------------------------|----------------------------------|
D|-------------------------------|----------------------------------|
A|-----------------7-7-7-12-7-7--|-----------------7-7-7-12-7-7-----|
E|-6h7-7-7-6h7-7-7---------------|-6h7-7-7-6h7-7-7------------------|

G|-------------------------------|----------------------------------|
D|-------------------------------|----------------------------------|
A|-----------------7-7-7-12-7-7--|-----------------7-7-7-12-7-7-----|
E|-6h7-7-7-6h7-7-7---------------|-6h7-7-7-6h7-7-7------------------|

G|----------------------------------------------------------|
D|----------------------------------------------------------|
A|--10----7---8---5-----------------------------------------|
E|-----10-------8----6h7-7-7-6h7-7-7-6h7-7-7-6h7-7-7--------|

G|---------------------|
D|---------------------|
A|--10----7---8---5----|
E|-----10-------8---7--|

| h   Hammer-on
Suggest correction
Give kudos to tab author, rate the tab!
1 2 3 4 5
comments
print report bad tab
guest
You may want to rate the tab now too:
select rating
Wanna post a correction for this tab? Suggest correction