Oops, an error
Loading. Please wait.

Hey Johnny Tab

112 views 18 this week
no commentswrite comment
1 2 3 4 5
3 more votes to show rating
add to favorites
launch autoscroll
font size
0
reset
how to read this tab
guitar tuner
Autoscroll
slow
fast
+/-
esc
set tempo
stop
Help us to improve Ultimate-Guitar.com Take our survey!
×
Author
Difficulty
intermediate
[Intro]

e|----------------------------|
B|----------------------------|
G|------------12b-12b-12b-12b-|
D|--9-10-9--------------------|  
A|---------10-----------------|
E|----------------------------|(x4)


[Verse 1]

Chords:
G-F-C 

e|------------------------------------------------------------|
B|-12-12-12-12-10--------------------------------12p10--------|
G|----------------12-10\9-12----------------9-12-------12-----|
D|------------------------------------10-12-------------------|
A|------------------------------10-12-------------------------|
E|------------------------------------------------------------|

e|-------10---------------------------------------------------|
B|-10h12----12-10-----------------------------12p10-----------|
G|----------------12-9-12----------------9-12-------12--------|
D|---------------------------------10-12----------------------|
A|---------------------------10-12----------------------------|
E|------------------------------------------------------------|

e|---------------------------|
B|-12-12-12-12-10------------|
G|----------------12-10\-----|
D|---------------------------|
A|---------------------------|
E|---------------------------|


[Solo]

e|-----------------------------------------------------------------------10--|
B|---------------10-12-12-12-12-10-------------------8-----8-------12-12-----|
G|-12-12-12-9-12-------------------12-9---12-12--7h9---7h9---7h9-------------|
D|---------------------------------------------------------------------------|
A|---------------------------------------------------------------------------|
E|---------------------------------------------------------------------------|

e|-10-12-10-15b-12-10-------10-12-10-15b-------------------------------------|
B|--------------------12b-----------------12-12-12-12-10----12b--------------|
G|-------------------------------------------------------12------------------|
D|---------------------------------------------------------------------------|
A|---------------------------------------------------------------------------|
E|---------------------------------------------------------------------------|


[Verse 2]

e|------------------------------------10------------------------------------|
B|------------------12p10-------10h12----12-10------------------------------|
G|-------------9-12-------12-------------------12-9-12----------------------|
D|-------10-12--------------------------------------------------------------|
A|-10-12--------------------------------------------------------------------|
E|--------------------------------------------------------------------------|

e|---------------------------------------------------------------------------|
B|------------------12p10------12-12-12-12-10--------------------------------|
G|-------------9-12-------12------------------12-9-12------------------------|
D|-------10-12---------------------------------------------------------------|
A|-10-12---------------------------------------------------------------------|
E|---------------------------------------------------------------------------|

e|------------------------------------10------------------------------------|
B|------------------12p10-------10h12----12-10------------------------------|
G|-------------9-12-------12-------------------12-9-12----------------------|
D|-------10-12--------------------------------------------------------------|
A|-10-12--------------------------------------------------------------------|
E|--------------------------------------------------------------------------|

e|-----------------------------------10-------------------------------------|
B|------------------12p10------10h12----12-10\------------------------------|
G|-------------9-12-------12------------------------------------------------|
D|-------10-12--------------------------------------------------------------|
A|-10-12--------------------------------------------------------------------|
E|--------------------------------------------------------------------------|


[Bridge]

Chords: 
D-A-C-G

e|-------------------------------------------------|
B|-------------------------------------------------|
G|-------------------------------------------------|
D|-------------------------------------------------|    
A|-12--12-12b-12--7--7-9-10--10-10b-10--5--5-2-0---|
E|-------------------------------------------------|(x6)


[Verse 3]

Back to just playing chords (G,F,C) before playing the lead parts again

e|------------------------------------10------------------------------------|
B|------------------12p10-------10h12----12-10------------------------------|
G|-------------9-12-------12-------------------12-9-12----------------------|
D|-------10-12--------------------------------------------------------------|
A|-10-12--------------------------------------------------------------------|
E|--------------------------------------------------------------------------|

e|-------------------------------|
B|------------------12p10--------|
G|-------------9-12-------12-----|
D|-------10-12-------------------|
A|-10-12-------------------------|
E|-------------------------------|

e|---------------------------|
B|-12-12-12-12-10------------|
G|----------------12-10\-----|
D|---------------------------|
A|---------------------------|
E|---------------------------|


[Outro]

e|----------------| |---------10-10-10-10-----------------------------|
B|----------------| |----------------------12-13-12-10-10-12-10-------|
G|-12-12-12-12-12-| |12-12-12-----------------------------------12----|
D|----------------| |-------------------------------------------------|  
A|----------------| |-------------------------------------------------|
E|----------------| |-------------------------------------------------|(x3)

e|----------10-10-10-10-----------------|
B|----------------------12-13-12--------|
G|-12-12-12-----------------------12----|
D|--------------------------------------|
A|--------------------------------------|
E|--------------------------------------|



************************************

| h   Hammer-on
| p   Pull-off
| b   Bend
| \   Slide down

************************************
Suggest correction
Give kudos to tab author, rate the tab!
1 2 3 4 5
comments
print report bad tab
guest
You may want to rate the tab now too:
select rating
Wanna post a correction for this tab? Suggest correction