Oops, an error
Loading. Please wait.

Max Cant Surf Bass Tab

version 1
version 1

Whole song

Interactive

109 views 9 this week
no commentswrite comment
1 2 3 4 5
3 more votes to show rating
add to favorites
launch autoscroll
font size
0
reset
guitar tuner
Autoscroll
slow
fast
+/-
esc
set tempo
stop
Help us to improve Ultimate-Guitar.com Take our survey!
×
[Intro]

G|------------------------------------------|
D|------------------------------------------|
A|-2-2-----------------2-2------------------|
E|------3-3--0-0--0-0-------3-3--0-0--0-0---|

[Verse]

G|---------------------------------------------------------------------------|
D|-BREAK---------------------------------------------------------------------|
A|---------------------------------------------------------------------------|
E|---------------------------------------------------------------------------|

G|-------------------------------------------------------------------------------------------------|
D|-------------------------------------------------------------------------------------------------|
A|-2-2-----------------2-2------------7-5---5\--2-2----------------------2-2-----------------2-----|
E|------3-3--0-0--0-0-------3-3--0-0------5----------3-3--0-0--0-0--5-5-------0-0--0-0---5-------0-|


[Chorus]

G|---------------------------------------------------------------------------|
D|---------------------------------------------------------------------------|
A|---------2-2-2-2---------7-5---5---------2-2-2-2---------7-4-7-4-----------|
E|-5-5-5-5---------0-0-0-0-----5---5-5-5-5---------0-0-0-0-------------------|

G|---------------------------------------------------------------------------|
D|---------------------------------------------------------------------------|
A|---------2-2-2-2-7-7-7-7-4-4-4-4---------5--2--5--2------------------------|
E|-5-5-5-5-------------------------5-5-5-5-----------------------------------|

[Solo]

G|------------------------------------------|
D|------------------------------------------|
A|-2-2-----------------2-2------------------|
E|------3-3--0-0--0-0-------3-3--0-0--0-0---|

G|------------------------------------------|
D|------------------------------------------|
A|-2-2-----------------2-2------------------|
E|------3-3--0-0--0-0-------3-3--0-0--0-0---|

[Bridge]

G|------------------------------------------|
D|------------------------------------------|
A|-2--------2--------2-----------2----------|
E|----3--0-----3--0-----3--0--5-----0-------|

[Verse]

G|-------------------------------------------------------------------------------------|
D|-------------------------------------------------------------------------------------|
A|-2-2-----------------2-2------------7-5---5\--2-2----------------------2-2-----------|
E|------3-3--0-0--0-0-------3-3--0-0------5----------3-3--0-0--0-0--5-5-------0-0--0-0-|

[Chorus]

G|---------------------------------------------------------------------------------------------|
D|---------------------------------------------------------------------------------------------|
A|----2-------------2-2-2-2---------7-4-7-4---------2-2-2-2-7-7-7-7-4-4-4-4---------5--2--5--2-|
E|-5-----0--5-5-5-5---------0-0-0-0---------5-5-5-5-------------------------5-5-5-5------------|

[Outro]

G|------------------------------------------|
D|------------------------------------------|
A|-2-2-----------------2-2------------------|
E|------3-3--0-0--0-0-------3-3--0-0--0-0---|

G|------------------------------------------|
D|------------------------------------------|
A|-2-2-----------------2-2------------------|
E|------3-3--0-0--0-0-------3-3--0-0--0-0---|

G|------------------------------------------------------|
D|------------------------------------------------------|
A|---------2-2-2-2-7-7-7-7-4-4-4-4---------5--2--5--2---|
E|-5-5-5-5-------------------------5-5-5-5------------0-|

Suggest correction
Give kudos to tab author, rate the tab!
1 2 3 4 5
comments
print report bad tab
guest
You may want to rate the tab now too:
select rating
Wanna post a correction for this tab? Suggest correction