Oops, an error
Loading. Please wait.

No Waves Tab

version 1
version 1

Whole song

  • This is the RIGHT way to play it, from a video of the song live.
57,244 views 180 this week
4 commentsread comments
1 2 3 4 5
excellent!
x 31
add to favorites
launch autoscroll
font size
0
reset
how to read this tab
guitar tuner
Autoscroll
slow
fast
+/-
esc
set tempo
stop
Help us to improve Ultimate-Guitar.com Take our survey!
×
http://www.youtube.com/watch?v=BYbJmQj5VkE
^ tabbed from this version

Chords: Verse
E|-----------------------------------|
B|--3-------7-------0-------5--------|
G|--4-------7-------0-------5--------|
D|--5-------9-------2-------5-(x16)--|
A|--5-(x16)-9-(x16)-2-(x16)-3--------|
E|--3-------7-------0----------------|
  Main riff rhythm
E|----------5------------------------|
B|--3-------7-------0-------5--------|
G|--4-------7-------0-------5--------|
D|--5-------7-------2-------5-(x16)--|
A|--5-(x16)-5-(x16)-2-(x16)-3--------|
E|--3---------------0----------------|


Main Riff:
E|-----------------------------------------------------------------|
B|--12--11--12--11--12--11--12--11--8--10--8--10--8--10--8--10-----|
G|-----------------------------------------------------------------|
D|-----------------------------------------------------------------|
A|-----------------------------------------------------------------|
E|-----------------------------------------------------------------|

E|--------------------------------------------------|
B|--5--8--5--8--5--8--5--8--3--5--3--5--3--5--3--5--|
G|--------------------------------------------------|
D|--------------------------------------------------|
A|--------------------------------------------------|
E|--------------------------------------------------|


Bass: Verse
G|----------------------------------|
D|----------------------------------|
A|--------------------------3-(x16)-|
E|--3-(x16)-7-(x16)-0-(x16)---------|
  Main riff
G|----------------------------------|
D|----------------------------------|
A|----------5-(x16)---------3-(x16)-|
E|--3-(x16)---------0-(x16)---------|



[Verse 1]
Verse Chords & Bass

[Bridge]
Main riff, main riff rhythm, main riff bass

[Verse 2]
Verse Bass x2
Verse Chords & Bass x2

[Bridge]
Main riff, main riff rhythm, main riff bass

[Verse 3]
Verse Chords & Bass

[Bridge]
Main riff, main riff rhythm, main riff bass

On the last time that the Main Riff is played it's slightly altered:

E|--------------------------------------------------------------|
B|--12--11--12--11--12--11--12--11--8--10--8--10--8--10--8--10--|
G|--------------------------------------------------------------|
D|--------------------------------------------------------------|
A|--------------------------------------------------------------|
E|--------------------------------------------------------------|
 

E|--------------------------------------------------|
B|--5--8--5--8--5--8--5--8--3--5--3--5--3--5--3--0--|
G|--------------------------------------------------|
D|--------------------------------------------------|
A|--------------------------------------------------|
E|--------------------------------------------------|

On the album version the main riff is changed for the second part when it's played twice

Main Riff: (every note is tremolo picked 4 times, until the first 8 is played)
E|-----------------------------------------------------------------------------|
B|--12--10--12--10--17--15--17--15--12--10--12--10--8--10--8--10--8--10--8--10-|
G|-----------------------------------------------------------------------------|
D|-----------------------------------------------------------------------------|
A|-----------------------------------------------------------------------------|
E|-----------------------------------------------------------------------------|

E|--------------------------------------------------|
B|--5--8--5--8--5--8--5--8--3--5--3--5--3--5--3--5--|
G|--------------------------------------------------|
D|--------------------------------------------------|
A|--------------------------------------------------|
E|--------------------------------------------------|
Suggest correction
comments
print report bad tab
4 comments total. Showing first comments.
+1 reply
cubguy23 10 wrote on July 19 2013, 03:06 pm

I think it is B 12 10 12 10 8 10 8 10 etc

0 reply
S_T_U_B_B_Y 10 wrote on September 26 2013, 06:54 am

Can you please add the last little part of the main riff? I'm not very good at figuring these things out on my own :(

0 reply
RammsteinTill 41 wrote on November 7 2013, 05:28 pm

That last Part I play like B 12121212p11 12121212p11 17171717p15 17171717p15 12121212p11 12121212p11 8 10 8 10 8 10 8 10 12 11 12 11 12 11 12 11 etc

guest
You may want to rate the tab now too:
select rating
Wanna post a correction for this tab? Suggest correction