Oops, an error
Loading. Please wait.

No Waves Tab

version 3
version 3

Whole song

  • This is the RIGHT way to play it, from a video of the song live.
  • Other versions are the tab from the "Don't Try" EP... Show more
76 views 1 this week
no commentswrite comment
1 2 3 4 5
1 last vote to show rating
add to favorites
launch autoscroll
font size
0
reset
how to read this tab
guitar tuner
Autoscroll
slow
fast
+/-
esc
set tempo
stop
Help us to improve Ultimate-Guitar.com Take our survey!
×
Author
Difficulty
novice
About this tab version
Other versions are the tab from the "Don't Try" EP. This tab is the "FIDLAR" album version. Was this info helpful? Yes No
LEAD GUITAR:

Main Riff:
e|-------------------------------------------------------------------------|
B|12-11-12-11-12-11-12---8-10-8-10-8-10-8---5-8-5-8-5-8-5---3-5-3-5-3-5-3--|
G|-------------------------------------------------------------------------|
D|-------------------------------------------------------------------------|
A|-------------------------------------------------------------------------|
E|-------------------------------------------------------------------------|

Solo:
The first part of this is alternate picked not quite sure how to tab it
e|------------------------------12(x3)--10(x4)-12(x3)--10(x4)-------------------------------
B|12(x3)--10(x4)-12(x3)--10(x4)-------------------------------12(x3)--10(x4)-12(x3)--10(x4)-
G|------------------------------------------------------------------------------------------
D|------------------------------------------------------------------------------------------
A|------------------------------------------------------------------------------------------
E|------------------------------------------------------------------------------------------

e|----------------------|
B|-8-10-8-10-8-10-8-----|
G|------------------4~--|
D|----------------------|
A|----------------------|
E|----------------------|



Build up:
e|--------------------------------------------------|
B|12-11-12-11-12-11-12-11-12-11-12-11-12-11-12-11---|
G|--------------------------------------------------|
D|--------------------------------------------------|
A|--------------------------------------------------|
E|--------------------------------------------------|




RHYTHM GUITAR:

Verse:
e|---------------------------------------------------------------|
B|---------------------------------------------------------------|
G|--------------------------5------------------------------------|
D|--5-------9-------2-------5-(x16)------------------------------|
A|--5-(x16)-9-(x16)-2-(x16)-3------------------------------------|
E|--3-------7-------0--------------------------------------------|


Rhythm Main Riff:
While Lead Guitar is doing "Main Riff" and "Solo"
e|---------------------------------------------------------------|
B|---------------------------------------------------------------|
G|--------------------------5------------------------------------|
D|--5-------9-------2-------5-(x8)-------------------------------|
A|--5-(x8)--9-(x8)-2-(x8)---3------------------------------------|
E|--3-------7-------0--------------------------------------------|


Alt. Verse:
Let each chord ring for 8 beats
e|---------------------------------------------------------------|
B|---------------------------------------------------------------|
G|------------------------5--------------------------------------|
D|--5-------9------2------5--------------------------------------|
A|--5-------9------2------3--------------------------------------|
E|--3-------7------0---------------------------------------------|



ORDER:
Verse x2
Main Riff x2, Rhythm Main Riff x2
Alt. Verse x2
Build Up x2, Verse x2
Main Riff x2, Rhythm Main Riff x2
Solo x1, Rhythm Main Riff x1
Main Riff x1, Rhythm Main Riff x1
Verse x2 (Palm Muted) (Skip final C5 Chord and do an 8 beat rest)
Main Riff x2, Rhythm Main Riff x2
Solo x1, Rhythm Main Riff x1
Main Riff x1, Rhythm Main Riff x1

| ~  vibrato
Suggest correction
Give kudos to tab author, rate the tab!
1 2 3 4 5
comments
print report bad tab
guest
You may want to rate the tab now too:
select rating
Wanna post a correction for this tab? Suggest correction