Oops, an error
Loading. Please wait.

Punks tab

version 2
version 2

Whole song

  • This version is different from the others because ... Show more
by FIDLAR
517 views 3 this week
no commentswrite comment
1 2 3 4 5
2 more votes to show rating
add to favorites
×
Save as Personal and add changes to this tab that will be seen only by you. Learn more ›
×
You can save this tab as Personal to edit and correct it or add notes. All changes will be seen only by you. Learn more »
launch autoscroll
font size
0
reset
how to read this tab
guitar tuner
edit
Autoscroll
slow
fast
+/-
esc
set tempo
stop
Author
Difficulty
Artist: FIDLAR
Track: Punks
Album: TOO
Tuning: Standard (EADGBE)
==============================================================================================

(First Riff)
E|-----------------------------------------------------------------------------|
B|-----------------------------------------------------------------------------|
G|-----------------------------------------------------------------------------|
D|------5b^6----------------5b^6------------5b^6-----------------7p5-----------|
A|-----------7-7-7-----5p7--------7-7-------------7-7-7-----5p7-----7--7-------|
E|----0-------0----5p7----0--------0--567--0-------0----5p7-----0----0---5-6-7-|
(Second Riff)
E|--------------------------------------------------------------------------|
----------------------------------------------------------------------------|
G|--------------------------------------------------------------------------|
D|-------------------------------------------------------------------5b^6s--|
A|---7-7--7-7-----------7-7---7-------5h7----7-7---7-7-----------7-7--------|          
E|-0-----0------3h5p3-0-----0-----5h7------0-----0------3h5p3--0------------|

(Repeat First Riff)

E|-----------------------------------------------------------------------------|
B|-----------------------------------------------------------------------------|
G|-----------------------------------------------------------------------------|
D|------5b^6----------------5b^6------------5b^6-----------------7p5-----------|
A|-----------7-7-7-----5p7--------7-7-------------7-7-7-----5p7-----7--7-------|
E|----0-------0----5p7----0--------0--567--0-------0----5p7-----0----0---5-6-7-|

Bridge

E|-----------------------------------------------------------------------------------------------------------|
B|-----------------------------------------------------------------------------------------------------------|
G|-----------------------------------------------------7h9---7h9---------------------------------------------|
D|--12-9--9x9------12-9--9x9------12-9-7x9----12-9--7h9---7h9----12-9-9x9-----12-9x9------12-9-9x9--99----5b~|
A|--10-7--7x7------10=7--7x7------10-7-7x9----10-7---------------10-7-7x7-----10-7x7------10-7-7x7--77-------|
E|0s----------7b-0s----------7-5-3---------7b------0s--------------------7b--0s-----753-0s--------7b---------|



(First Riff)
E|-----------------------------------------------------------------------------|
B|-----------------------------------------------------------------------------|
G|-----------------------------------------------------------------------------|
D|------5b^6----------------5b^6------------5b^6-----------------7p5-----------|
A|-----------7-7-7-----5p7--------7-7-------------7-7-7-----5p7-----7--7-------|
E|----0-------0----5p7----0--------0--567--0-------0----5p7-----0----0---5-6-7-|


(Semi Correct solo) Starts at ** in previous riff
E|--------------------------------------------------------------------------------------|
B|----------------------------------------------------------------8-10~—8~----8-10b~-8~-|
G|------------------------------------------7h9-7h9-9--9b-7b 77—9----------9b~----------|
D|-----5h7b-------5h7b--------5h7/9—7h9-7h9---------------------------------------------|
A|-5h7-----h7-5h7------h7-5h7-----------------------------------------------------------|
E|--------------------------------------------------------------------------------------|


(First Riff)
E|-----------------------------------------------------------------------------|
B|-----------------------------------------------------------------------------|
G|-----------------------------------------------------------------------------|
D|------5b^6----------------5b^6------------5b^6-----------------7p5-----------|
A|-----------7-7-7-----5p7--------7-7-------------7-7-7-----5p7-----7--7-------|
E|----0-------0----5p7----0--------0--567--0-------0----5p7-----0----0---5-6-7-|


(First Riff)
E|-------------------------------------------------------------------------------|
B|-------------------------------------------------------------------------------|
G|-------------------------------------------------------------------------------|
D|------5b^6----------------5b^6------------5b^6-----------------7p5-------------|
A|-----------7-7-7-----5p7--------7-7-------------7-7-7-----5p7-----7--7---------|
E|----0-------0----5p7----0--------0--567--0-------0----5p7-----0----0---5-6-7-0s|
||END SONG||

**************************
| b  Bend
| ~  Vibrato
| p  Pull-off
| h  Hammer-on
| /  Slide Down
| x  Dead note
**************************

=====================================================================================================
PLEASE VOTE AND LEAVE COMMENTS!

I Had trouble with the solo so any suggestion will help.
IF its hard to read Comment and let me know as well 

ENJOY!
Suggest correction
Creating personal tab
Creating personal tab
You can edit any tab online and save it as your Personal.

You can edit, replace or remove any tab part or add personal notes – all changes will be seen only by you.

Personal tabs can be accessed anytime from any device, even offline.
Learn more »
Give kudos to tab author, rate the tab!
1 2 3 4 5
comments
print report bad tab
guest
You may want to rate the tab now too:
select rating
Wanna post a correction for this tab? Suggest correction