Oops, an error
Loading. Please wait.

Whatever Cover chords

by FIDLAR
757 views 3 this week
no commentswrite comment
1 2 3 4 5
x 6
add to favorites
×
Save as Personal and add changes to this tab that will be seen only by you. Learn more ›
×
You can save this tab as Personal to edit and correct it or add notes. All changes will be seen only by you. Learn more »
launch autoscroll
font size
0
reset
transpose
0
reset
display chords
guitar tuner
edit
Autoscroll
slow
fast
+/-
esc
set tempo
stop
Strumming
There is no strumming pattern for this song yet. and get +5 IQ
[Intro]

e|---------------------------------------------------------------------------|
B|-12-10-9--5-5-5s9--9s5-----------------------------------------------------|
G|-----------------------4---------------------------------------------------|
D|---------------------------------------------------------------------------|
A|---------------------------------------------------------------------------|
E|---------------------------------------------------------------------------|

e|---------------------------------------------------------------------------|
B|-12-10-9--5-5-5s9--9---5---------------------------------------------------|
G|---------------------4-----------------------------------------------------|
D|---------------------------------------------------------------------------|
A|---------------------------------------------------------------------------|
E|---------------------------------------------------------------------------|


[Verse]

     C                       F         C
They come here alone and they leave as two
                              G        
Except for you and me who just came to use
C                          F           C
If you're all done like you said you'd be
                  G                 C
What are you doing hanging out with me

                               F          C
Why you tell me things that are plainly untrue
                                      G
If you'll be straight with me, I'll be straighter with you
C                          F           C
If you're all done like you said you'd be
                  G                 C  
What are you doing hanging out with me


[Bridge]

Am F C G

C                          F          C  
If you're all done like you said you'd be
                  G                 C
What are you doing hanging out with me


[Instr. Verse]

C F C G
C F C G C


[Outro]

Am                                F    C
I haven't done anything in a very long time
                             G 
Whatever you've got right now will probably suit me fine
C                           F          C
If you're all done like you said you'd be
                  G                 C
What are you doing hanging out with me
                  G                 C 
What are you doing hanging out with me



************************************

| s  Slide

************************************

            
            
Suggest correction
Creating personal tab
Creating personal tab
You can edit any tab online and save it as your Personal.

You can edit, replace or remove any tab part or add personal notes – all changes will be seen only by you.

Personal tabs can be accessed anytime from any device, even offline.
Learn more »
comments
print report bad tab
guest
You may want to rate the tab now too:
select rating
Wanna post a correction for this tab? Suggest correction