Oops, an error
Loading. Please wait.

Why Generation Acoustic chords

version 2
version 2

Whole song

by FIDLAR
808 views 24 this week
no commentswrite comment
1 2 3 4 5
x 3
add to favorites
×
Save as Personal and add changes to this tab that will be seen only by you. Learn more ›
×
You can save this tab as Personal to edit and correct it or add notes. All changes will be seen only by you. Learn more »
launch autoscroll
font size
0
reset
transpose
0
reset
display chords
guitar tuner
edit
Autoscroll
slow
fast
+/-
esc
set tempo
stop
Author
Difficulty
Strumming
There is no strumming pattern for this song yet. and get +5 IQ
[Intro]

  E                   D         A                   D
e|---------------------------------------------------------------------------|
B|---9-----9-----9--------7-------5----5---------5-----7---------------------|
G|-----9-9---9-9---9--------7-------6----6---6-----6-----7-------------------|
D|-------------------9--------7------------7---------------------------------|
A|-7-------------------5--------0--------------0-----5-----------------------|
E|---------------------------------------------------------------------------|
  E                   D          A               D   
e|---------------------------------------------------------------------------|
B|---9-----9-----9--------7------5-5-5-5-5-5-5-5-7-7-------------------------|
G|-----9-9---9-9---9--------7----6-6-6-6-6-6-6-6-7-7-------------------------|
D|-------------------9--------7--7-7-7-7-7-7-7-7-7-7-------------------------|
A|-7-------------------5---------0-0-0-0-0-0-0-0-5-5-------------------------|
E|---------------------------------------------------------------------------|

E   D   A  D  E  D  A  D  
  

[Verse]

E                   D     A      D   E 
There's a secret we wanna know
                                    D        A    D   E 
But you keep it, yeah you keep it, for your own
                               D     A      D    E 
And all the kids, all the kids wanna know
                         D    A 
Where do I belong, where do I go?
N.C.
And they tell you


[Chorus]

E   D 
Why generation
A   D 
Why generation
E   D 
Why generation
A   D 
Why generation

  E                   D         A                   D
e|---------------------------------------------------------------------------|
B|---9-----9-----9--------7-------5----5---------5-----7---------------------|
G|-----9-9---9-9---9--------7-------6----6---6-----6-----7-------------------|
D|-------------------9--------7------------7---------------------------------|
A|-7-------------------5--------0--------------0-----5-----------------------|
E|---------------------------------------------------------------------------|
  E                   D          A               D   
e|---------------------------------------------------------------------------|
B|---9-----9-----9--------7------5-5-5-5-5-5-5-5-7-7-------------------------|
G|-----9-9---9-9---9--------7----6-6-6-6-6-6-6-6-7-7-------------------------|
D|-------------------9--------7--7-7-7-7-7-7-7-7-7-7-------------------------|
A|-7-------------------5---------0-0-0-0-0-0-0-0-5-5-------------------------|
E|---------------------------------------------------------------------------|


[Verse]

E                   D     A      D   E 
There's a secret we wanna know
                                   D          A       D   E 
How the hell, how the hell are we supposed to know?
                          D     A        D    E 
How to live in the twenty-first century
                           D           A 
When every move you, make everyone can see
N.C.
So they tell you


[Chorus]

E   D 
Why generation
A   D 
Why generation
E   D 
Why generation
A   D 
Why generation


[Instrumental]

E  D  A  D  E  D  A  E


[Verse]

E                   D     A      D   E 
I remember the morning on my parents' bed
                       D        A       D   E 
TV screen was burning through my head
                       D     A        D    E 
There's a bad, bad man in our land
                         D        A 
Why'd he do it, will we ever understand?
N.C.
And they tell you


[Chorus]

E   D 
Why generation
A   D 
Why generation
E   D 
Why generation
A   D 
Why generation
E   D 
Why generation
A   D 
Why generation
E   D 
Why generation
A   D 
Why generation




https://www.youtube.com/watch?v=yb4HTfBCEO8

   E  A  D  G  B  e
E  x  7  9  9  9  x
D  x  5  7  7  7  x
A  x  0  7  6  5  x
E  0  2  2  1  0  0
D  x  x  0  2  3  2
A  X  0  2  2  2  0
Suggest correction
Creating personal tab
Creating personal tab
You can edit any tab online and save it as your Personal.

You can edit, replace or remove any tab part or add personal notes – all changes will be seen only by you.

Personal tabs can be accessed anytime from any device, even offline.
Learn more »
Give kudos to tab author, rate the tab!
1 2 3 4 5
comments
print report bad tab
guest
You may want to rate the tab now too:
select rating
Wanna post a correction for this tab? Suggest correction