Oops, an error
Loading. Please wait.

Encontrarte Es Una Historia chords

version 1
version 1

Whole song

155 views 3 this week
no commentswrite comment
1 2 3 4 5
3 more votes to show rating
add to favorites
×
Save as Personal and add changes to this tab that will be seen only by you. Learn more ›
×
You can save this tab as Personal to edit and correct it or add notes. All changes will be seen only by you. Learn more »
launch autoscroll
font size
0
reset
transpose
0
reset
display chords
guitar tuner
edit
Autoscroll
slow
fast
+/-
esc
set tempo
stop
Strumming
There is no strumming pattern for this song yet. and get +5 IQ
ACORDES:> DO SOL LAm MI RE

SE UTILIZA EL CAPO EN EL SEGUNDO TRASTE

E-5-5-5-5-0-9-5-5-5-5-0-9-5-------------------
B-5-5-5-5-0-0-5-5-5-5-0-0---------------------
G-0-0-0-0-0-0-0-0-0-0-0-0--------------------- INTRO
D---------------------------------------------
A---------------------------------------------
E---------------------------------------------

LUEGO ENTRA 2da GUITARRA

E-5-4-----------------------------------------5-
B----7-5-5-0-5-7-5-3-0-3-0-0-----------5-----5--
G-------------------------4----0-4-6-4---0--0---
D----------------------------6-------------0----
A-----------------------------------------------
E-----------------------------------------------

        C        G       Am          E
EN TU FORMA NATURAL, DE PLACER DE ROSALES
       C            Am        G       D
DE TU CUERPO ES MI PARTE ESENCIAL REACTIVAR,
       C        G           Am          E
ANATOMIA SILENCIOSA QUE ME QUEMA POR PARTES,
        C        Am        G        D
QUE SE DUERMA EL DOLOR Y SUEñE CON TU MAR,
      C               G         Am          E
DE COLORES QUE SE EXPANDEN, Y TU ARTE ES MI CLAVE,
          C         Am          C          D       G
ES MI FUENTE ES LA PARTE DE QUERER DARTE TODO AL CANTAR(SE REPITE INTRO)

(PARA LOS SIGUIENTES VERSOS, LA SECUENCIA DE LOS ACORDES NO CAMBIA)


    Am             D      E       Am           E
Y NADA PUEDE HACERME CAMBIAR MI SUERTE ES MILAGROSA

     C              E
ENCONTRARTE ES UNA HISTORIA
 C             D      G
QUE HOY DEBERIAN PUBLICAR

            
            
Suggest correction
Creating personal tab
Creating personal tab
You can edit any tab online and save it as your Personal.

You can edit, replace or remove any tab part or add personal notes – all changes will be seen only by you.

Personal tabs can be accessed anytime from any device, even offline.
Learn more »
Give kudos to tab author, rate the tab!
1 2 3 4 5
comments
print report bad tab
guest
Wanna post a correction for this tab? Suggest correction