Oops, an error
Loading. Please wait.

Pale Rider Tab

28 views 1 this week
no commentswrite comment
1 2 3 4 5
3 more votes to show rating
add to favorites
launch autoscroll
font size
0
reset
how to read this tab
guitar tuner
Autoscroll
slow
fast
+/-
esc
set tempo
stop
Help us to improve Ultimate-Guitar.com Take our survey!
×
Author
Difficulty
Capo
intermediate
7th fret
About this tab version
This version sounded a bit better to me than the other one that's on here. Was this info helpful? Yes No
This is not completely correct as he actually plays this song in an alternate  tuning. 
Nonetheless, this sounds decently close. 
This tab is roughly based off this: https://www.youtube.com/watch?v=9BN5LpSw6Sk
Just mess around with it, it's not too difficult to figure out.

[Verse]

         There's a pale horse...
e|-------------------------------------------------------------------------|
B|---------0-------0--------0-----0--------0-----3---------3---------------|
G|-----0-------0--------0-------------0---------------0--------------------|
D|--------------------------------0------0-------0-------0-----------------| x2
A|---2---2---0---0---------------------------------------------------------|
E|--------------------3---3----3----3---------3-----3----------------------|
        it told me it's name...
e|---------------------------------------------------|-------------------------|
B|---------0-------0-------0---0-------0---0-------0-|---0-------0---0-------0-|
G|-----0-------0-------0-----------0-----------0-----|-------0-----------0-----|
D|-----------------------------0-----0-----0-----0---|---2-----2-----2-----2---| (last part x4)
A|---2---2---0---0-----------------------------------|-0---0-------0---0-------|
E|-------------------3---3---0---0-------0---0-------|-------------------------|
         Cause there's something inside...
e|-------------------------------------------------------------------------|
B|---------0-------0--------0-----0--------0-----3---------3---------------|
G|-----0-------0--------0-------------0---------------0--------------------|
D|--------------------------------0------0-------0-------0-----------------| x2
A|---2---2---0---0---------------------------------------------------------|
E|--------------------3---3----3----3---------3-----3----------------------|
          but the thing inside you is not your kin...
e|---------------------------------------------------|-------------------------|
B|---------0-------0-------0---0-------0---0-------0-|---0-------0---0-------0-|
G|-----0-------0-------0-----------0-----------0-----|-------0-----------0-----|
D|-----------------------------0-----0-----0-----0---|---2-----2-----2-----2---| (last part x4)
A|---2---2---0---0-----------------------------------|-0---0-------0---0-------|
E|-------------------3---3---0---0-------0---0-------|-------------------------|



[Chorus]
       I don't know that I could be...
e|---------------------------------------------------------------------------|
B|---------0-------0-------0-------0-------0-------0-------0-------0-------0-|
G|-----0-------0-------0-------0-------0-------0-------0-------0-------0-----|
D|-------0-------0-------0-------0-------0-------0-------0-------0-------0---|
A|---3-------3-------3-------3-------3-------0-------0-------0-------0-------|
E|---------------------------------------------------------------------------|
                                                                                
e|---------------------------------------------------------------------------|
B|---------0-------0-------0-------0-------3-------3-------3-------3---------|
G|-----0-------0-------0-------0-------0-------0-------0-------0-------------|
D|-------0-------0-------0-------0-------0-------0-------0-------0-----------| x2
A|---2-------2-------2-------2-------2-------2-------2-------2---------------|
E|---------------------------------------------------------------------------|

[Verse]
      Now the next thing I know...
e|-------------------------------------------------------------------------|
B|---------0-------0--------0-----0--------0-----3---------3---------------|
G|-----0-------0--------0-------------0---------------0--------------------|
D|--------------------------------0------0-------0-------0-----------------| x2
A|---2---2---0---0---------------------------------------------------------|
E|--------------------3---3----3----3---------3-----3----------------------|
      we're out looking for your family
e|---------------------------------------------------|-------------------------|
B|---------0-------0-------0---0-------0---0-------0-|---0-------0---0-------0-|
G|-----0-------0-------0-----------0-----------0-----|-------0-----------0-----|
D|-----------------------------0-----0-----0-----0---|---2-----2-----2-----2---| (last part x4)
A|---2---2---0---0-----------------------------------|-0---0-------0---0-------|
E|-------------------3---3---0---0-------0---0-------|-------------------------|
     now you're cantoring crooked...
e|-------------------------------------------------------------------------|
B|---------0-------0--------0-----0--------0-----3---------3---------------|
G|-----0-------0--------0-------------0---------------0--------------------|
D|--------------------------------0------0-------0-------0-----------------| x2
A|---2---2---0---0---------------------------------------------------------|
E|--------------------3---3----3----3---------3-----3----------------------|
      his birthday was yesterday...
e|---------------------------------------------------|-------------------------|
B|---------0-------0-------0---0-------0---0-------0-|---0-------0---0-------0-|
G|-----0-------0-------0-----------0-----------0-----|-------0-----------0-----|
D|-----------------------------0-----0-----0-----0---|---2-----2-----2-----2---| (last part x4)
A|---2---2---0---0-----------------------------------|-0---0-------0---0-------|
E|-------------------3---3---0---0-------0---0-------|-------------------------|

[Chorus]
       I don't know that I could be...
e|---------------------------------------------------------------------------|
B|---------0-------0-------0-------0-------0-------0-------0-------0-------0-|
G|-----0-------0-------0-------0-------0-------0-------0-------0-------0-----|
D|-------0-------0-------0-------0-------0-------0-------0-------0-------0---|
A|---3-------3-------3-------3-------3-------0-------0-------0-------0-------|
E|---------------------------------------------------------------------------|
                                                                                
e|---------------------------------------------------------------------------|
B|---------0-------0-------0-------0-------3-------3-------3-------3---------|
G|-----0-------0-------0-------0-------0-------0-------0-------0-------------|
D|-------0-------0-------0-------0-------0-------0-------0-------0-----------| x2
A|---2-------2-------2-------2-------2-------2-------2-------2---------------|
E|---------------------------------------------------------------------------|

I'm not sure on the bridge...

[Verse]
         There's a pale horse...
e|-------------------------------------------------------------------------|
B|---------0-------0--------0-----0--------0-----3---------3---------------|
G|-----0-------0--------0-------------0---------------0--------------------|
D|--------------------------------0------0-------0-------0-----------------| x2
A|---2---2---0---0---------------------------------------------------------|
E|--------------------3---3----3----3---------3-----3----------------------|
        it told me it's name...
e|---------------------------------------------------|-------------------------|
B|---------0-------0-------0---0-------0---0-------0-|---0-------0---0-------0-|
G|-----0-------0-------0-----------0-----------0-----|-------0-----------0-----|
D|-----------------------------0-----0-----0-----0---|---2-----2-----2-----2---| (last part x4)
A|---2---2---0---0-----------------------------------|-0---0-------0---0-------|
E|-------------------3---3---0---0-------0---0-------|-------------------------|


I realize that many things(if not most) are off, so feel free to make
 improvements as I would love to figure this song out.
Suggest correction
Give kudos to tab author, rate the tab!
1 2 3 4 5
comments
print report bad tab
guest
You may want to rate the tab now too:
select rating
Wanna post a correction for this tab? Suggest correction