Oops, an error
Loading. Please wait.

Lampshade Tab

266 views 1 this week
no commentswrite comment
1 2 3 4 5
2 more votes to show rating
add to favorites
×
Save as Personal and add changes to this tab that will be seen only by you. Learn more ›
×
You can save this tab as Personal to edit and correct it or add notes. All changes will be seen only by you. Learn more »
save as personal
new!
launch autoscroll
font size
0
reset
how to read this tab
guitar tuner
Autoscroll
slow
fast
+/-
esc
set tempo
stop
Author
Unregistered
Fielding- Lampshade
Off the album, "The bear and the bird"
Its a pretty simple song but it sounds good and its fun.

Standard Tuning


Rythm Guitar :
   - Listen to the song to get the strumming patern.


Verse :
|----0-----0-----3-----3----|
|----1-----1-----1-----0----|  This is played once by itself before the other
|----0-----0-----0-----0----|  instruments come in.
|----2-----2-----0-----0----|  Then play it 12 times.
|----0-----3-----2-----2----|
|----X-----X-----3-----3----|


Then the riff/chorus :
|---------------------------------------0----0--|
|---------------------------------------1----1--|  Play twice.
|----5-5-5-5-4-4-4-4-0-0-0-0-0-2-2--- -0----0---|  Then on the third time only do the
|----0-0-0-0-0-0-0-0-0-0-0-0-0-0-0--- -2----2---|  notes part and then go to the verse
|---------------------------------------0----3--|  again. (skip the chords part and go to
|---------------------------------------X----X--|  the verse.)


Play the verse again .. 4 times.

Then play the riff/chorus .. 4 times.

Outro:
|----0----0----0----3----3-----|
|----1----1----1----1----0-----|
|----0----2----0----0----0-----|     Play Once and let last chord (G) ring out.
|----2----3----2----0----0-----|
|----0----0----3----2----2-----|
|----X----X----X----3----3-----|


Lead Guitar :


Verse :
|-------3-----------3-----------3-----------3----------------|
|----/5---5------/5---5------/5---5------/5---5--3--5--3-----|
|---------------------------------------------------------5--|
|------------------------------------------------------------|
|------------------------------------------------------------|
|------------------------------------------------------------|

**Wait until after rythm guitar plays verse chords through once by itself,
then come in and play this twice.

**Then you play nothing while the singing is going on.
But when the singing is over you play this again, twice.
Then once again you stop while the lyrics are being sang.
Then you play this..

Riff/Chorus :
|-------------------------------------------3----------------------------|
|-------------------------------------/5--5---5--3----3----3--5--3-------|
|---5-5-5-5-4-4-4-4-0-0-0-0-0h2-2-----------------5----5----------5------|
|---0-0-0-0-0-0-0-0-0-0-0-0-0---0----------------------------------------|
|------------------------------------------------------------------------|
|------------------------------------------------------------------------|

** Play this twice... then the third time skip the second part and go back into the verse.

**Play the verse part twice and then cut out during the singing. This time though, after 
first singing part is over you go right into the riff/chorus part and play that 4 times.


Outro:
-------------------------------------------------------|
|------1------------1------------1--------------1--0---|
|----0----0--------2---2--------0--0-------------------|
|---2------2------3-----3------2----2-------0----------|
|--0--------0----0-------0----3------3-----2-----------|
------------------------------------------3------------|

**Play  4 times and then let last note ring out.


Tabbed by - Ben
Suggest correction
Give kudos to tab author, rate the tab!
1 2 3 4 5
comments
print report bad tab
guest
Wanna post a correction for this tab? Suggest correction