Oops, an error
Loading. Please wait.

Armed Gangs Bass Tab

108 views 1 this week
no commentswrite comment
1 2 3 4 5
3 more votes to show rating
add to favorites
launch autoscroll
font size
0
reset
guitar tuner
Autoscroll
slow
fast
+/-
esc
set tempo
stop
Help us to improve Ultimate-Guitar.com Take our survey!
×
From:	haplo_4@hotmail.com
Sent:	14 July 1998 05:56 PM

Subject:	SUBMITTED: f/fifteen/armed_gangs.btab
Submitted by: Shahan Drake              Haplo_4@hotmail.com

Tabbed by: Don Spencer, apended a lot by: me 

Fifteen      armed gangs     taken from Surprise!
----------------------------------------------------------------------

           -intro-
G: ------
D: ------
A: 5/12\5                               slide from 5 to 12 and back 
E: ------


----------------------------------------------------------------------

           -first rythm-
G: -------------4------------------------------
D: -----------4---4-2-0-----------------4-5-7--:x4
A: 5-55-33-2------------2-0-1-11111-0.---------
E: --------------------------------------------


----------------------------------------------------------------------

           -second rythm-
G: ------------------------------------------------------------------
D: -----------------------------------------------------------5-55555
A: 5-55-332---------333333---------5-55-332---------3-333-2-3--------
E: ---------3-33333--------3-33333----------3-33333------------------


----------------------------------------------------------------------


G: -------------------------------------------------------------------
D: -------------------------------------------------------------------
A: 5-55-332---------3-33333-----------5-55-332---------3-33333--------
E: ---------3-33333---------3-33333------------3-33333---------3-33333


--------------------------------------------------------------------

           -last rythm-       (last two 5's get chopped off for outro)
G: ------------------------------------------------------------
D: 555554------------------------------------------------------
A: -------5-5554---------------------------555557--------------  :x2
E: --------------5-555555-7777-5555-333333--------5555557775555


---------------------------------------------------------------------
repeat first rythm, second, repeat last x2 
---------------------------------------------------------------------

           -outro-
G: -----------
D: -----------
A: -----------
E: 7777-5555-3...


---------------------------------------------------------------------
Fifteen discography               
   Allegra live on No Records
   There's No Place Like Home
   Extra Medium Kick Ball Star (17) on Rebel Alliance Records
   Surprise!, Buzz, on Grass Records
  *Swain's First Bike Ride, The Choice of a New Generation,on LookOut!
  *contains Fifteen self titled     
If anyone finds "ooze" or "I'd rather kiss a wookie" let me know.
Suggest correction
Give kudos to tab author, rate the tab!
1 2 3 4 5
comments
print report bad tab
guest
You may want to rate the tab now too:
select rating
Wanna post a correction for this tab? Suggest correction