Oops, an error
Loading. Please wait.

Squeeze tab

1,276 views 6 this week
no commentswrite comment
1 2 3 4 5
1 last vote to show rating
add to favorites
×
Save as Personal and add changes to this tab that will be seen only by you. Learn more ›
×
You can save this tab as Personal to edit and correct it or add notes. All changes will be seen only by you. Learn more »
launch autoscroll
font size
0
reset
how to read this tab
guitar tuner
edit
Autoscroll
slow
fast
+/-
esc
set tempo
stop
Author
[Verse 1]

e|--------0-----------0-----------0-------------------0------------0-----------0------------|
B|--3-3-3---3-1-3-3-3---3-1-3-3-1---3-1-3-3-1---3-3-3---3-1-3-3-3----3-1-3-3-1---3-1-3-3-1--|
G|------------------------------------------------------------------------------------------|
D|------------------------------------------------------------------------------------------|
A|------------------------------------------------------------------------------------------|
E|------------------------------------------------------------------------------------------|


[Pre-Chorus]

e|--------0-----------0-----------0-------------------0-----------0-----------0-------------|
B|--3-3-3---3-1-3-3-3---3-1-3-3-1---3-1-3-3-1---3-3-3---3-1-3-3-3---3-1-3-3-1---3-1-3-3-1---|
G|------------------------------------------------------------------------------------------|
D|------------------------------------------------------------------------------------------|
A|------------------------------------------------------------------------------------------|
E|------------------------------------------------------------------------------------------|


[Chorus]

e|--------0-0----------------0-0----------3-5-3-5-8-10/12---------0-0-------------0-0---------|
B|--1-1-3-----3-3-1--1-1--3------3-3-1--1-------------------1-1-3-----3-3-1--1-1-3-----3-3-1--|
G|--------------------------------------------------------------------------------------------|
D|--------------------------------------------------------------------------------------------|
A|--------------------------------------------------------------------------------------------|
E|--------------------------------------------------------------------------------------------|

e|----3-5--3-5-8--3-5-8--3-5-8-10/12-----------------------------------------|
B|--1------------------------------------------------------------------------|
G|---------------------------------------------------------------------------|
D|---------------------------------------------------------------------------|
A|---------------------------------------------------------------------------|
E|---------------------------------------------------------------------------|


e|--3-0-------0-----3-0-------0-----3-0-------0-----3-0-------0--------------|
B|------3-3-3---3-------3-3-3---1-------3-3-3---3-------3-3-3---1------------|
G|---------------------------------------------------------------------------|
D|---------------------------------------------------------------------------|
A|---------------------------------------------------------------------------|
E|---------------------------------------------------------------------------|

e|--3-0-------0-----3-0-------0----3-0-------0----3-0-------0----------------|
B|------3-3-3---3-------3-3-3---1------3-3-3---3------3-3-3---1--------------|
G|---------------------------------------------------------------------------|
D|---------------------------------------------------------------------------|
A|---------------------------------------------------------------------------|
E|---------------------------------------------------------------------------|


[Verse 2]

e|--------0-----------0-----------0-------------------0------------0-----------0------------|
B|--3-3-3---3-1-3-3-3---3-1-3-3-1---3-1-3-3-1---3-3-3---3-1-3-3-3----3-1-3-3-1---3-1-3-3-1--|
G|------------------------------------------------------------------------------------------|
D|------------------------------------------------------------------------------------------|
A|------------------------------------------------------------------------------------------|
E|------------------------------------------------------------------------------------------|
 

[Pre-Chorus]

e|--------0-----------0-----------0-------------------0-----------0-----------0-------------|
B|--3-3-3---3-1-3-3-3---3-1-3-3-1---3-1-3-3-1---3-3-3---3-1-3-3-3---3-1-3-3-1---3-1-3-3-1---|
G|------------------------------------------------------------------------------------------|
D|------------------------------------------------------------------------------------------|
A|------------------------------------------------------------------------------------------|
E|------------------------------------------------------------------------------------------|


[Chorus]

e|--------0-0----------------0-0----------3-5-3-5-8-10/12---------0-0-------------0-0---------|
B|--1-1-3-----3-3-1--1-1--3------3-3-1--1-------------------1-1-3-----3-3-1--1-1-3-----3-3-1--|
G|--------------------------------------------------------------------------------------------|
D|--------------------------------------------------------------------------------------------|
A|--------------------------------------------------------------------------------------------|
E|--------------------------------------------------------------------------------------------|

e|----3-5--3-5-8--3-5-8--3-5-8-10/12-----------------------------------------|
B|--1------------------------------------------------------------------------|
G|---------------------------------------------------------------------------|
D|---------------------------------------------------------------------------|
A|---------------------------------------------------------------------------|
E|---------------------------------------------------------------------------|

e|--3-0-------0-----3-0-------0-----3-0-------0-----3-0-------0--------------|
B|------3-3-3---3-------3-3-3---1-------3-3-3---3-------3-3-3---1------------|
G|---------------------------------------------------------------------------|
D|---------------------------------------------------------------------------|
A|---------------------------------------------------------------------------|
E|---------------------------------------------------------------------------|

e|--3-0-------0-----3-0-------0----3-0-------0----3-0-------0----------------|
B|------3-3-3---3-------3-3-3---1------3-3-3---3------3-3-3---1--------------|
G|---------------------------------------------------------------------------|
D|---------------------------------------------------------------------------|
A|---------------------------------------------------------------------------|
E|---------------------------------------------------------------------------|


[Chorus]

e|--------0-0----------------0-0----------3-5-3-5-8-10/12---------0-0-------------0-0---------|
B|--1-1-3-----3-3-1--1-1--3------3-3-1--1-------------------1-1-3-----3-3-1--1-1-3-----3-3-1--|
G|--------------------------------------------------------------------------------------------|
D|--------------------------------------------------------------------------------------------|
A|--------------------------------------------------------------------------------------------|
E|--------------------------------------------------------------------------------------------|

e|----3-5--3-5-8--3-5-8--3-5-8-10/12-----------------------------------------|
B|--1------------------------------------------------------------------------|
G|---------------------------------------------------------------------------|
D|---------------------------------------------------------------------------|
A|---------------------------------------------------------------------------|
E|---------------------------------------------------------------------------|

e|--3-0-------0-----3-0-------0-----3-0-------0-----3-0-------0--------------|
B|------3-3-3---3-------3-3-3---1-------3-3-3---3-------3-3-3---1------------|
G|---------------------------------------------------------------------------|
D|---------------------------------------------------------------------------|
A|---------------------------------------------------------------------------|
E|---------------------------------------------------------------------------|

e|--3-0-------0-----3-0-------0----3-0-------0----3-0-------0----------------|
B|------3-3-3---3-------3-3-3---1------3-3-3---3------3-3-3---1--------------|
G|---------------------------------------------------------------------------|
D|---------------------------------------------------------------------------|
A|---------------------------------------------------------------------------|
E|---------------------------------------------------------------------------|



************************************

| /   Slide up

************************************

            
            
Suggest correction
Creating personal tab
Creating personal tab
You can edit any tab online and save it as your Personal.

You can edit, replace or remove any tab part or add personal notes – all changes will be seen only by you.

Personal tabs can be accessed anytime from any device, even offline.
Learn more »
Give kudos to tab author, rate the tab!
1 2 3 4 5
comments
print report bad tab
guest
You may want to rate the tab now too:
select rating
Wanna post a correction for this tab? Suggest correction