Oops, an error
Loading. Please wait.

Worth It intro tab

version 2
version 2

Intro

Whole song

1,928 views 3 this week
no commentswrite comment
1 2 3 4 5
2 more votes to show rating
add to favorites
×
Save as Personal and add changes to this tab that will be seen only by you. Learn more ›
×
You can save this tab as Personal to edit and correct it or add notes. All changes will be seen only by you. Learn more »
launch autoscroll
font size
0
reset
how to read this tab
guitar tuner
edit
Autoscroll
slow
fast
+/-
esc
set tempo
stop
Author
Difficulty
intermediate
Worht It - Fifth Harmony

Tabbed by: Dayna - This is my first tab so bear with me, i did it by ear so it might be a mess but i tabbed 
it out so maybe you guys can play it for yourselves and change it up a bit for the better.

e|---------------------------------------------------------------------------|
B|---------------------------------------------------------------------------|
G|---------------------4h5p4-------------------------------------------------|
D|--2/3--3-5-5---5/6----------6-5-6-5-3--------------------------------------|
A|---------------------------------------------------------------------------|
E|---------------------------------------------------------------------------|

e|---------------------------------------------------------------------------|
B|---------------------------------------------------------------------------|
G|----------------------4h5p4------------------------------------------------|
D|---2/3--3-5-5---5/6-------------6-5-6--------------------------------------|
A|---------------------------------------------------------------------------|
E|---------------------------------------------------------------------------|

e|---------------------------------------------------------------------------|
B|---------------------------------------------------------------------------|
G|-------------------4----------------------5p4--5p4--5p4--5p4---------------|
D|-------------4-6-------6-5-6-5---------------------------------6-5---------|
A|--3/4--4-6----------------------6------------------------------------------|
E|---------------------------------------------------------------------------|

************************************

| h  Hammer-on
| p  Pull-off
| /  Slide up

************************************

            
            
Suggest correction
Creating personal tab
Creating personal tab
You can edit any tab online and save it as your Personal.

You can edit, replace or remove any tab part or add personal notes – all changes will be seen only by you.

Personal tabs can be accessed anytime from any device, even offline.
Learn more »
Give kudos to tab author, rate the tab!
1 2 3 4 5
comments
print report bad tab
guest
You may want to rate the tab now too:
select rating
Wanna post a correction for this tab? Suggest correction