Oops, an error
Loading. Please wait.

Worth It Tab

version 1
version 1

Whole song

157 views 12 this week
no commentswrite comment
1 2 3 4 5
3 more votes to show rating
add to favorites
launch autoscroll
font size
0
reset
how to read this tab
guitar tuner
Autoscroll
slow
fast
+/-
esc
set tempo
stop
Help us to improve Ultimate-Guitar.com Take our survey!
×
Author
Difficulty
intermediate
Fifth Harmony
Worth It


[Chorus]

e|------------------------------------------------------|
B|----13-13-13-13-13s16-13----13------------------------|
G|-------------------------16----16-13------------------|
D|------------------------------------------------------|
A|------------------------------------------------------|
E|------------------------------------------------------|

e|------------------------------------------------------|
B|----13-13-13-13-13s16-13----13------------------------|
G|-------------------------16---------------------------|
D|------------------------------------------------------|
A|------------------------------------------------------|
E|------------------------------------------------------|

e|------------------------------------------------------|
B|------------------------------------------------------|
G|----12-12-12-11-12-11--12-12-12-11--------------------|
D|-----------------------------------13-----------------|
A|------------------------------------------------------|
E|------------------------------------------------------|

e|------------------------------------------------------|
B|----12-12-12-13-12------------------------------------|
G|-------------------13-12------------------------------|
D|------------------------------------------------------|
A|------------------------------------------------------|
E|------------------------------------------------------|

Give it to me, I'm worth it
Baby I'm worth it
Uh huh I'm worth it
Gimme gimme I'm worth it
Give it to me, I'm worth it
Baby I'm worth it
Uh huh I'm worth it
Gimme gimme I'm worth it


[Verse]

e|------------------------------------------------------|
B|------------------------------------------------------|
G|------------------------------------------------------|
D|-----5--5-----5-5-------------------4-4---------------|
A|-----3--3----3--3-----5-5-----5-5--2--2---------------|
E|---------------------3--3----3--3---------------------|

Okay
I tell her bring it back like she left somethin'
Bring it bring it back like she left somethin'
Uh, in the club with the lights off
What you actin' shy for?
Come and show me that you're
Wit it wit it wit it wit it
Stop playin' now you know I'm
Wit it wit it wit it wit it wit it
What you actin' shy for?

Just gimme you, just gimme you
Just gimme you, that's all I wanna do
And if what they say is true
If it's true, I won't get mad at you
I may talk a lot of stuff
Guaranteed, I can back it up
I think I'mma call your bluff
Hurry up, I'm walkin' out front


[Pre-Chorus]

Ab
Uh huh you see me in the spot like
Eb
"Ooh I love your style"
Cm
Uh huh show me what you got
Bb
'Cause I don't wanna waste my time
Ab
Uh huh see me in the spot like
Eb
"Ooh I love your style"
Cm
Uh huh show me what you got
G
Now come and make it worth my while


[Chorus]

e|------------------------------------------------------|
B|----13-13-13-13-13s16-13----13------------------------|
G|-------------------------16----16-13------------------|
D|------------------------------------------------------|
A|------------------------------------------------------|
E|------------------------------------------------------|

e|------------------------------------------------------|
B|----13-13-13-13-13s16-13----13------------------------|
G|-------------------------16---------------------------|
D|------------------------------------------------------|
A|------------------------------------------------------|
E|------------------------------------------------------|

e|------------------------------------------------------|
B|------------------------------------------------------|
G|----12-12-12-11-12-11--12-12-12-11--------------------|
D|-----------------------------------13-----------------|
A|------------------------------------------------------|
E|------------------------------------------------------|

e|------------------------------------------------------|
B|----12-12-12-13-12------------------------------------|
G|-------------------13-12------------------------------|
D|------------------------------------------------------|
A|------------------------------------------------------|
E|------------------------------------------------------|

Give it to me, I'm worth it
Baby I'm worth it
Uh huh I'm worth it
Gimme gimme I'm worth it
Give it to me, I'm worth it
Baby I'm worth it
Uh huh I'm worth it
Gimme gimme I'm worth it


[Verse]

e|------------------------------------------------------|
B|------------------------------------------------------|
G|------------------------------------------------------|
D|-----5--5-----5-5-------------------4-4---------------|
A|-----3--3----3--3-----5-5-----5-5--2--2---------------|
E|---------------------3--3----3--3---------------------|

It's all on you, it's all on you
It's all on you, so what you wanna do?
And if you don't have a clue
Not a clue, I'll tell you what to do
Come harder just because
I don't like it, like it too soft
I like it a little rough
Not too much, but maybe just enough


[Pre-Chorus]

Ab
Uh huh you see me in the spot like
Eb
"Ooh I love your style"
Cm
Uh huh show me what you got
Bb
'Cause I don't wanna waste my time
Ab
Uh huh see me in the spot like
Eb
"Ooh I love your style"
Cm
Uh huh show me what you got
G
Now come and make it worth my while


[Chorus]

e|------------------------------------------------------|
B|----13-13-13-13-13s16-13----13------------------------|
G|-------------------------16----16-13------------------|
D|------------------------------------------------------|
A|------------------------------------------------------|
E|------------------------------------------------------|

e|------------------------------------------------------|
B|----13-13-13-13-13s16-13----13------------------------|
G|-------------------------16---------------------------|
D|------------------------------------------------------|
A|------------------------------------------------------|
E|------------------------------------------------------|

e|------------------------------------------------------|
B|------------------------------------------------------|
G|----12-12-12-11-12-11--12-12-12-11--------------------|
D|-----------------------------------13-----------------|
A|------------------------------------------------------|
E|------------------------------------------------------|

e|------------------------------------------------------|
B|----12-12-12-13-12------------------------------------|
G|-------------------13-12------------------------------|
D|------------------------------------------------------|
A|------------------------------------------------------|
E|------------------------------------------------------|


Give it to me, I'm worth it
Baby I'm worth it
Uh huh I'm worth it
Gimme gimme I'm worth it
Give it to me, I'm worth it (know what I mean?)
Baby I'm worth it (give me everything)
Uh huh I'm worth it
Gimme gimme I'm worth it


[Verse]

e|------------------------------------------------------|
B|------------------------------------------------------|
G|------------------------------------------------------|
D|-----5--5-----5-5-------------------4-4---------------|
A|-----3--3----3--3-----5-5-----5-5--2--2---------------|
E|---------------------3--3----3--3---------------------|

Okay
I tell her bring it back like she left somethin'
Bring it bring it back like she left somethin'
Uh, in the club with the lights off
What you actin' shy for?
Come and show me that you're
Wit it wit it wit it wit it
Stop playin' now you know I'm
Wit it wit it wit it wit it wit it
What you actin' shy for?


[Pre-Chorus]

Ab
Uh huh you see me in the spot like
Eb
"Ooh I love your style"
Cm
Uh huh show me what you got
Bb
'Cause I don't wanna waste my time
Ab
Uh huh see me in the spot like
Eb
"Ooh I love your style"
Cm
Uh huh show me what you got
G
Now come and make it worth my while


[Chorus]

e|------------------------------------------------------|
B|----13-13-13-13-13s16-13----13------------------------|
G|-------------------------16----16-13------------------|
D|------------------------------------------------------|
A|------------------------------------------------------|
E|------------------------------------------------------|

e|------------------------------------------------------|
B|----13-13-13-13-13s16-13----13------------------------|
G|-------------------------16---------------------------|
D|------------------------------------------------------|
A|------------------------------------------------------|
E|------------------------------------------------------|

e|------------------------------------------------------|
B|------------------------------------------------------|
G|----12-12-12-11-12-11--12-12-12-11--------------------|
D|-----------------------------------13-----------------|
A|------------------------------------------------------|
E|------------------------------------------------------|

e|------------------------------------------------------|
B|----12-12-12-13-12------------------------------------|
G|-------------------13-12------------------------------|
D|------------------------------------------------------|
A|------------------------------------------------------|
E|------------------------------------------------------|


Give it to me, I'm worth it
Baby I'm worth it
Uh huh I'm worth it
Gimme gimme I'm worth it
Give it to me, I'm worth it (know what I mean?)
Baby I'm worth it (give me everything)
Uh huh I'm worth it
Gimme gimme I'm worth it

Give it to me, I'm worth it



************************************

| s  slide

************************************
Suggest correction
Give kudos to tab author, rate the tab!
1 2 3 4 5
comments
print report bad tab
guest
You may want to rate the tab now too:
select rating
Wanna post a correction for this tab? Suggest correction