Oops, an error
Loading. Please wait.

Little Crazy Bass Tab

1,474 views 9 this week
no commentswrite comment
1 2 3 4 5
please rate
add to favorites
launch autoscroll
font size
0
reset
guitar tuner
Autoscroll
slow
fast
+/-
esc
set tempo
stop
Help us to improve Ultimate-Guitar.com Take our survey!
×
Author
Difficulty
Tuning
novice
C F A# D# G C
F|--------------------------------------------------------------|
C|--------------------------------------------------------------|
G|----------3---------------------------------------------------|
C|--0-0-3-0-------0-0-3-0-----0-0-3-0-3-----5--5--3-5-3---------|

  Verse
F|--------------------------------------------------------------|
C|--------------------------------------------------------------|
G|--------------------------------------------------------------|
C|--0-0-3-3-0-3-----0-0-3-3-0-----0-0-3-3-0-3-----5--5--3-5-3---|

F|--------------------------------------------------------------|
C|--------------------------------------------------------------|
G|--------------------------------------------------------------|
C|--0-0-3-3-0-3-----0-0-3-3-0-----0-0-3-3-0-3-----5--5--3-5-3---|

  Chorus
F|--------------------------------------------------------------|
C|--------------------------------------------------------------|
G|----------3---------------------------------------------------|
C|--0-0-3-0-------0-0-3-0-----0-0-3-0-3-----5--5--3-5-3---------|

F|--------------------------------------------------------------|
C|--------------------------------------------------------------|
G|----------3---------------------------------------------------|
C|--0-0-3-0-------0-0-3-0-----0-0-3-0-3-----5--5--3-5-3---------|

  Verse
F|--------------------------------------------------------------|
C|--------------------------------------------------------------|
G|--------------------------------------------------------------|
C|--0-0-3-3-0-3-----0-0-3-3-0-----0-0-3-3-0-3-----5--5--3-5-3---|

F|--------------------------------------------------------------|
C|--------------------------------------------------------------|
G|--------------------------------------------------------------|
C|--0-0-3-3-0-3-----0-0-3-3-0-----0-0-3-3-0-3-----5--5--3-5-3---|

  Chorus
F|--------------------------------------------------------------|
C|--------------------------------------------------------------|
G|----------3---------------------------------------------------|
C|--0-0-3-0-------0-0-3-0-----0-0-3-0-3-----5--5--3-5-3---------|

F|--------------------------------------------------------------|
C|--------------------------------------------------------------|
G|----------3---------------------------------------------------|
C|--0-0-3-0-------0-0-3-0-----0-0-3-0-3-----5--3--5--3--3-------|

  Bridge
F|--------------------------------------------------------------|
C|--------------------------------------------------------------|
G|--2-3-2-3-2---------------------2-3-2-3-2---------------------|
C|------------5-3-2-2-2-2-2-2-2-2-----------5-3-2-2-2-2-2-2-2-2-|

F|--------------------------------------------------------------|
C|--------------------------------------------------------------|
G|--2-3-2-3-2---------------------2-3-2-3-2---------------------|
C|------------5-3-2-2-2-2-2-2-2-2-----------5-3-2---------------|

  After Break - Bass Comes Back In With This
F|--------------------------------------------------------------|
C|--------------------------------------------------------------|
G|--------------------------------------------------------------|
C|--5--5--3-5-3-------------------------------------------------|

  Verse
F|--------------------------------------------------------------|
C|--------------------------------------------------------------|
G|--------------------------------------------------------------|
C|--0-0-3-3-0-3-----0-0-3-3-0-----0-0-3-3-0-3-----5--5--3-5-3---|

F|--------------------------------------------------------------|
C|--------------------------------------------------------------|
G|--------------------------------------------------------------|
C|--0-0-3-3-0-3-----0-0-3-3-0-----0-0-3-3-0-3-----5--5--3-5-3---|

  Chorus
F|--------------------------------------------------------------|
C|--------------------------------------------------------------|
G|----------3---------------------------------------------------|
C|--0-0-3-0-------0-0-3-0-----0-0-3-0-3-----5--5--3-5-3---------|

F|--------------------------------------------------------------|
C|--------------------------------------------------------------|
G|----------3---------------------------------------------------|
C|--0-0-3-0-------0-0-3-0-----0-0-3-0-3-----5--5--3-5-3---------|

F|--------------------------------------------------------------|
C|--------------------------------------------------------------|
G|----------3---------------------------------------------------|
C|--0-0-3-0-------0-0-3-0-----0-0-3-0-3-----5--5--3-5-3---------|

F|--------------------------------------------------------------|
C|--------------------------------------------------------------|
G|----------3---------------------------------------------------|
C|--0-0-3-0-------0-0-3-0-----0-0-3-0-3-----5--5--3-5-3---------|

F|--------------------------------------------------------------|
C|--------------------------------------------------------------|
G|--------------------------------------------------------------|
C|--5--5--3-5-3-----5--5--3-5-3-0-------------------------------|
Suggest correction
Give kudos to tab author, rate the tab!
1 2 3 4 5
comments
print report bad tab
guest
You may want to rate the tab now too:
select rating
Wanna post a correction for this tab? Suggest correction