Oops, an error
Loading. Please wait.

If It Hurts tab

641 views 3 this week
no commentswrite comment
1 2 3 4 5
x 4
add to favorites
×
Save as Personal and add changes to this tab that will be seen only by you. Learn more ›
×
You can save this tab as Personal to edit and correct it or add notes. All changes will be seen only by you. Learn more »
launch autoscroll
font size
0
reset
how to read this tab
guitar tuner
edit
Autoscroll
slow
fast
+/-
esc
set tempo
stop
Fight Or Flight: If It Hurts

Transcribed by: mysticguitar77

YouTube Username: MysticGuitar77

Date last modified: July 25, 2013

Tuning: Drop C# (C#,G#,C#,F#,A#,D#)

Riff 1 w/ wah filter
D#|------------------------------------------------------|
A#|------------------------------------------------------|
F#|------------------------------------------------------|
C#|------------------------------------------------------|
G#|--------/7--------/7-----/7---------------------------|
C#|-0-0--0----0-0--0----0-0----10-10-10-10-8--5-5-5-7--1-|

Riff 2
D#|------------------------------------------------------|
A#|------------------------------------------------------|
F#|------------------------------------------------------|
C#|----------------------------10-10-10-10-8--5-5-5-7--1-|
G#|--------/7--------/7-----/7-10-10-10-10-8--5-5-5-7--1-|
C#|-0-0--0----0-0--0----0-0----10-10-10-10-8--5-5-5-7--1-|

Riff 3   "From every thought to every step..."
D#|--------------------------------------------------------------------|
A#|--------------------------------------------------------------------|
F#|--------------------------------------------------------------------|
C#|--------------------------------------------------------------------|
G#|--------/7--------/7-----/7-----------------------------------------|
C#|-0-0--0----0-0--0----0-0----10-10-10-10-10-10-10-10-8-8-8-8-8-8-8-8-|
    * *  *    * *  *    * *    *  *  *  *  *  *  *  *  * * * * * * * *

Play Riff 3 x2   "I never thought I'd be the one..."

Riff 4   "Are you the hand for the weak or the hopeful..."
D#|----------------------|
A#|----------------------|
F#|----------------------|
C#|------------3p1-1-1-1-|
G#|-0100-0-0-0-3p1-1-1-1-|
C#|-0100-0-0-0-3p1-1-1-1-|
    **** * * *

Play Riff 4 x2

Riff 5   "If it hurts you to see..."
D#|---------------------------------------------|
A#|---------------------------------------------|
F#|---------------------------------------------|
C#|-0--0--0-0-10--10--10-10-3--3--3-3-5--5--5-5-|
G#|-0--0--0-0-8---8---8--8--3--3--3-3-5--5--5-5-|
C#|-0--0--0-0-8---8---8--8--3--3--3-3-5--5--5-5-|

Play Riff 5 x2

Riff 6   "Do you feel control..."
D#|----------------------------------------------------------|
A#|----------------------------------------------------------|
F#|----------------------------------------------------------|
C#|-8--8-8--8-8-8-8-8h10-10-10-10-10-10-8h10-10-8h10-10-8h10-|
G#|-8--8-8--8-8-8-8-8h10-10-10-10-10-10-8h10-10-8h10-10-8h10-|
C#|-8--8-8--8-8-8-8-8h10-10-10-10-10-10-8h10-10-8h10-10-8h10-|

Fill 1
D#|----------------------------|
A#|----------------------------|
F#|----------------------------|
C#|----------------------------|
G#|--------/7--------/7-----/7-|
C#|-0-0--0----0-0--0----0-0----|

Play Riff 3 x2   "I chase the love..."
Play Riff 4 x2   "Are the hand for the weak or the hopeful..."
Play Riff 5 x2   "If it hurts you to see..."
Play Riff 6 x1   "Do you feel control..."

Riff 7   "No way!!"
D#|-------------------------------------------|
A#|-------------------------------------------|
F#|-------------------------------------------|
C#|-------------------------------------------|
G#|-5h6p5-------3h6p5---5h6p5-----------------|
C#|-------0-0-0-------0-------0-3h5p3-0-5h6p5-|
          * * *       *       *       *

D#|-------------------------------------|
A#|-------------------------------------|
F#|-------------------------------------|
C#|-------------------------------------|
G#|-5h6p5---6h8p6---5h6p5---------6-5-6-|
C#|-------0-------0-------0-0-0-0-6-5-6-|
          *       *       * * * *

Play Riff 7 x6   "I won't take no for an answer..."
Play Riff 6 x1   "Do you feel control..."
Play Riff 5 x4   "If it hurts you to see..."
Play Riff 6 x1   "Do you feel control..."
Play Riff 4 x4   "Let somebody know!!"

Enjoy!!
Suggest correction
Creating personal tab
Creating personal tab
You can edit any tab online and save it as your Personal.

You can edit, replace or remove any tab part or add personal notes – all changes will be seen only by you.

Personal tabs can be accessed anytime from any device, even offline.
Learn more »
comments
print report bad tab
guest
You may want to rate the tab now too:
select rating
Wanna post a correction for this tab? Suggest correction