Oops, an error
Loading. Please wait.

99 Tab

version 1
version 1

Intro

Whole song

Interactive

3,968 views 1 this week
1 commentread comment
1 2 3 4 5
please rate
add to favorites
launch autoscroll
font size
0
reset
how to read this tab
guitar tuner
Autoscroll
slow
fast
+/-
esc
set tempo
stop
Help us to improve Ultimate-Guitar.com Take our survey!
×
Author
Difficulty
novice
-------------------------------------------------------------------------------
                             SONG NAME - Band Name
-------------------------------------------------------------------------------
Tabbed by:k8t11

This is tabbed as it is actually played. I've seen some people's variation but
this is how they actually play this particular riff. 100% correct.

e|---------8------------8------------|-------10---------10-------------|
B|-------------8------------8--------|-----------8-----------8---------|
G|----10-----------10------------10--|---10----------10-----------10---|
D|-----------------------------------|---------------------------------|
A|-----------------------------------|---------------------------------|
E|-----------------------------------|---------------------------------|

e|---------8------------8------------|-------------10------------------|
B|-------------8------------8--------|--------------8--hold------------|
G|----10-----------10------------10--|-------------10------------------|
D|-----------------------------------|---------------------------------|
A|-----------------------------------|---------------------------------|
E|-----------------------------------|---------------------------------|
Suggest correction
Give kudos to tab author, rate the tab!
1 2 3 4 5
comments
print report bad tab
1 comment total.
0 reply
Narduin 10 wrote on February 13 2009, 05:14 pm

cheers, that's so much easier to play than other peoples variations

guest
You may want to rate the tab now too:
select rating
Wanna post a correction for this tab? Suggest correction