Oops, an error
Loading. Please wait.

99 Tab

version 2
version 2

Intro

Whole song

Interactive

5,306 views 12 this week
1 commentread comment
1 2 3 4 5
accurate
x 1
add to favorites
launch autoscroll
font size
0
reset
how to read this tab
guitar tuner
Tab Pro tools
  • play this tab
  • loop segment
  • change instrument
  • show fretboard
  • metronome
Autoscroll
slow
fast
+/-
esc
set tempo
stop
Contributor
Difficulty
Tuning
scb
novice
C G C F A D
Fightstar-99
One Day Son, This Will All Be Yours
Tuning- Drop C (CGCFAD)
Tabbed by-scb
i hope this isnt too confusing, but yeah heres the tab for 99...i dont think everythings 
but yeh its close enough. :)

Intro Pt.1
Guitar 1
D|------------------------------------------------------|
A|--13----13--------15----15--------13----13------15~---|
F|----12----12--------12----12--------12----12----12~---|
C|15----15----15~-15----15----15~-15----15----15~-15~---|
G|------------------------------------------------------|
C|------------------------------------------------------|

Intro Pt.2
Guitar 1
D|------------------------------------------------------|
A|------------------------------------------------------|
F|10/12\10\9999\7777\555/99910/12\10\9999\7777/999999---|
C|x-/x-\x-\xxxx\xxxx\xxx/xxxx-/x-\x-\xxxx\xxxx/xxxxxx---|
G|8-/10\8-\7777\5555\333/7778-/10\8-\7777\5555/777777---|
C|------------------------------------------------------|

Guitar 2
D|------------------------------------------------------------------|
A|--13----13----13----13----13-------15----15----15----15----15-----|
F|----12----12----12----12----12-------12----12----12----12----12---|
C|15----15----15----15----15----15-15----15----15----15----15----15-|
G|------------------------------------------------------------------|x2
C|------------------------------------------------------------------|

Verse
Guitar 1 (guitar 2 plays almost exactly same, difference is shown)
D|--------------------------------------------------|
A|------------------------------------------810h10--|(guitar 1 plays this)
F|-----10-9~/12----12-----------10-9~/127777--------| Harmony
C|-------------1212--101010-----------------1214h14-|(guitar 2 plays this)
G|810h8--------------------810h8--------------------|
C|--------------------------------------------------|

D|-------------------------------------------------|
A|-------------------------------------------------|
F|-----10-9~/12-----------------10-9~/1277779h99---|
C|-------------121212101010------------------------|
G|810h8--------------------810h8-------------------|
C|-------------------------------------------------|

Bridge
Guitar 1&2
D|----------------------------------------------------------------|
A|----------------------------------------------------------------|
F|------------------(do palm mutes)-------------------------------|
C|777777777777777755555555555555577777777777777778888888888888888-
G|555555555555555555555555555555555555555555555558888888888888888-
C|----------------555555555555555----------------8888888888888888-

Guitar 1
D|--------------|
A|--------------|
F|--------------|
C|--------------|
G|--------------|
C|1p01p01p01p0--

Chorus
Guitar 1
D|-------------------------------------------------|
A|-------------------------------------------------|
F|----------------1010101010\999-1717171717\151515-|
C|3333333355555555x-x-x-x-x-\xxx-x-x-x-x-x-\x-x-x--|
G|33333333333333338-8-8-8-8-\777-1515151515\131313-|
C|33333333-----------------------------------------|

D|----------------------------------------------------------|
A|----------------------------------------------------------|
F|12/14 12/14 12/14 12/14 17171717171717171717171717171717--
C|x-/x--x-/x--x-/x--x-/x--x-x-x-x-x-x-x-x-x-x-x-x-x-x-x-x---|
G|10/12-10/12 10/12 10/12 15151515151515151515151515151515--|
C|----------------------------------------------------------|

D|---------------------|
A|---------------------|
F|10/12\101010\999-17~-
C|x-/x-\x-x-x-\xxx-x-~-|
G|8-/10\8-8-8-\777-15~-|
C|---------------------|

Guitar 2
D|----------------------------------|
A|----------------------------------|
F|----------------------------------|
C|33333333555555557777777788888888--
G|33333333333333335555555588888888--
C|33333333----------------88888888--

D|----------------------------------------------------|
A|----------------------------------------------------|
F|----------------------------------------------------|
C|3333333333333333555555555555555500000000000000008~--
G|3333333333333333555555555555555500000000000000008~--
C|3333333333333333555555555555555500000000000000008~--

After Chorus Riff
Guitar 1
D|------------------------------------------------------|
A|------------------------------------------------------|
F|10/12\10\9999\7777\555/99910/12\10\9999\7777/999999---|
C|x-/x-\x-\xxxx\xxxx\xxx/xxxx-/x-\x-\xxxx\xxxx/xxxxxx---|
G|8-/10\8-\7777\5555\333/7778-/10\8-\7777\5555/777777---|
C|------------------------------------------------------|

Guitar 2
D|------------------------------|
A|------------------------------|
F|10t-9t-10t-12t-10t-9t-7t-5t---|
C|------------------------------|
G|------------------------------|
C|------------------------------|

Verse
Guitar 1 (guitar 2 plays almost exactly same, difference is shown)
D|--------------------------------------------------|
A|------------------------------------------810h10--|(guitar 1 plays this)
F|-----10-9~/12----12-----------10-9~/127777--------| Harmony
C|-------------1212--101010-----------------1214h14-|(guitar 2 plays this)
G|810h8--------------------810h8--------------------|
C|--------------------------------------------------|

D|-------------------------------------------------|
A|-------------------------------------------------|
F|-----10-9~/12-----------------10-9~/1277779h99---|
C|-------------121212101010------------------------|
G|810h8--------------------810h8-------------------|
C|-------------------------------------------------|

Bridge
Guitar 1&2
D|----------------------------------------------------------------|
A|----------------------------------------------------------------|
F|------------------(do palm mutes)-------------------------------|
C|777777777777777755555555555555577777777777777778888888888888888-
G|555555555555555555555555555555555555555555555558888888888888888-
C|----------------555555555555555----------------8888888888888888-

Guitar 1
D|--------------|
A|--------------|
F|--------------|
C|--------------|
G|--------------|
C|1p01p01p01p0--

Chorus
Guitar 1
D|-------------------------------------------------|
A|-------------------------------------------------|
F|----------------1010101010\999-1717171717\151515-|
C|3333333355555555x-x-x-x-x-\xxx-x-x-x-x-x-\x-x-x--|
G|33333333333333338-8-8-8-8-\777-1515151515\131313-|
C|33333333-----------------------------------------|

D|----------------------------------------------------------|
A|----------------------------------------------------------|
F|12/14 12/14 12/14 12/14 17171717171717171717171717171717--
C|x-/x--x-/x--x-/x--x-/x--x-x-x-x-x-x-x-x-x-x-x-x-x-x-x-x---|
G|10/12-10/12 10/12 10/12 15151515151515151515151515151515--|
C|----------------------------------------------------------|

D|----------------------------------|
A|----------------------------------|
F|10/12\101010\999-1717171717171717-
C|x-/x-\x-x-x-\xxx-x-x-x-x-x-x-x-x--|
G|8-/10\8-8-8-\777-1515151515151515-|
C|----------------------------------|

Guitar 2
D|----------------------------------|
A|----------------------------------|
F|----------------------------------|
C|33333333555555557777777788888888--
G|33333333333333335555555588888888--
C|33333333----------------88888888--

D|-----------------------------------------------------------------|
A|-----------------------------------------------------------------|
F|-----------------------------------------------------------------|
C|3333333333333333555555555555555500000000000000008888888888888888-
G|3333333333333333555555555555555500000000000000008888888888888888-
C|3333333333333333555555555555555500000000000000008888888888888888-

Interlude Pt.1
Guitar 1
D|------------------|
A|---------13-------|
F|14-------14-------|
C|12-(x16)-12-(x16)-|[x4]
G|------------------|
C|------------------|

Guitar 2
D|----------------------------------|
A|----------------------------------|
F|----14------14------14------14----|
C|--12--12--12--12--12--12--12--12--|[x8]
G|12------12------12------12--------|
C|----------------------------------|

Interlude Pt.2
Guitar 1
D|--------------------|
A|--------18t-17t-----|
F|14t-17t-x-t-x-t-17t-|
C|x-t-x-t-15t-14t-x-t-|
G|12t-15t---------15t-|
C|--------------------|

Guitar 2
D|--------------------------------------------------------|
A|--------------------------------------------------------|
F|--------------------------------------------------------|
C|7777777777777777888888888888888x00000008888888888888888-
G|5555555555555555888888888888888x00000008888888888888888-
C|----------------888888888888888x00000008888888888888888-

Chorus
Guitar 1
D|-------------------------------------------------|
A|-------------------------------------------------|
F|----------------1010101010\999-1717171717\151515-|
C|3333333355555555x-x-x-x-x-\xxx-x-x-x-x-x-\x-x-x--|
G|33333333333333338-8-8-8-8-\777-1515151515\131313-|
C|33333333-----------------------------------------|

D|----------------------------------------------------------|
A|----------------------------------------------------------|
F|12/14 12/14 12/14 12/14 17171717171717171717171717171717--
C|x-/x--x-/x--x-/x--x-/x--x-x-x-x-x-x-x-x-x-x-x-x-x-x-x-x---|
G|10/12-10/12 10/12 10/12 15151515151515151515151515151515--|
C|----------------------------------------------------------|

D|----------------------------------|
A|----------------------------------|
F|10/12\101010\999-1717171717171717-
C|x-/x-\x-x-x-\xxx-x-x-x-x-x-x-x-x--|
G|8-/10\8-8-8-\777-1515151515151515-|
C|----------------------------------|

Guitar 2
D|----------------------------------|
A|----------------------------------|
F|----------------------------------|
C|33333333555555557777777788888888--
G|33333333333333335555555588888888--
C|33333333----------------88888888--

D|-----------------------------------------------------------------|
A|-----------------------------------------------------------------|
F|-----------------------------------------------------------------|
C|3333333333333333555555555555555500000000000000008888888888888888-
G|3333333333333333555555555555555500000000000000008888888888888888-
C|3333333333333333555555555555555500000000000000008888888888888888-

High Notes over the top
D|17t-15t-20t-18t-17t-15t-20t-24t-|
A|--------------------------------|
F|--------------------------------|
C|--------------------------------|
G|--------------------------------|
C|--------------------------------|

Outro
Guitar 1
D|------------|
A|------------|
F|10/12\10\9~-
C|x-/x-\x-\x~-
G|8-/10\8-\7~-|
C|---------0~-|

Guitar 2
D|24~--(with feeback)
A|-----
F|-----
C|-----
G|-----
C|-----

the amount of times you hit each note ie only rough, im sure you can hear :)
this sounds pretty much right!
----------------------------------------------------------------------------
T=tremolo picking
/-slide up
\-slide down
x-mute
p-pull off
~-let ring
comments
We did not receive enough feedback on this tab! Please rate:
print report bad tab
1 2 3 4 5
1 comment total.
0 reply
mickmars2 wrote on April 15 2008, 10:19 am

couple of querks but overall
very nice!

I want to post or [tab]
guest
You may want to rate the tab now too:
select rating
Please do not post tabs as comments. Select "correction" instead!