Oops, an error
Loading. Please wait.

A City On Fire Tab

version 1
version 1

Whole song

Interactive

4,921 views 1 this week
no commentswrite comment
1 2 3 4 5
accurate
x 3
add to favorites
launch autoscroll
font size
0
reset
how to read this tab
guitar tuner
Tab Pro tools
  • play this tab
  • loop segment
  • change instrument
  • show fretboard
  • metronome
×
Best way to learn
"A City On Fire"
Autoscroll
slow
fast
+/-
esc
set tempo
stop
Difficulty
novice
I got a little fed up of not having a tab version of this, I've just transcribed what 
guy (THE1ADI)(http://www.youtube.com/watch?v=aH2UZH4QymI) is playing into standard tuning. 
it sounds right to you guys!

I might get round to doing the other guitar part through the chorus a little later :) 
guys.

Intro (x3)
 e|---------------------------------------------------------------|
 B|---------------------------------------------------------------|
 G|---------------------------------------------------------------|
 D|----6------------------6---------------------------------------|
 A|--------------------------------2------------------------------|
 E|--4---4--4-2h4p2h4---4---4--4-4--------------------------------|

Verse (first time rest for 4 bars)
 e|---------------------------------------------------------------|
 B|---------------------------------------------------------------|
 G|---------------------------------------------------------------|
 D|-----6--4-----4------------------------------------------------|
 A|-----------6-----6--4--6--4-----4--6--4------------------------|
 E|--4--------------------------7----------7--4-------------------|

Chorus riff
 e|---------------------------------------------------------------|
 B|---------------------------------------------------------------|
 G|---------------------------------------------------------------|
 D|---------------------------------------------------------------|
 A|-22222222-44444444-66666666-9999-9999--------------------------|
 E|-00000000-22222222-44444444-7777\6666--------------------------|
pm|......... ........ ........ .... ....

 e|---------------------------------------------------------------|
 B|---------------------------------------------------------------|
 G|---------------------------------------------------------------|
 D|---------------------------------------------------------------|
 A|-22222222-44444444-66666666-99999999---------------------------|
 E|-00000000-22222222-44444444-77777777---------------------------|
pm|......... ........ ........ ........

back to the intro ;)
 e|---------------------------------------------------------------|
 B|---------------------------------------------------------------|
 G|---------------------------------------------------------------|
 D|----6------------------6---------------------------------------|
 A|------------------------------2--------------------------------|
 E|--4---4--4-2h4p2h4---4---4--4----------------------------------|

Verse (x3)
 e|---------------------------------------------------------------|
 B|---------------------------------------------------------------|
 G|---------------------------------------------------------------|
 D|-----6--4-----4------------------------------------------------|
 A|-----------6-----6--4--6--4-----4--6--4------------------------|
 E|--4--------------------------7----------7--4-------------------|

Chorus
 e|---------------------------------------------------------------|
 B|---------------------------------------------------------------|
 G|---------------------------------------------------------------|
 D|---------------------------------------------------------------|
 A|-22222222-44444444-66666666-9999-9999--------------------------|
 E|-00000000-22222222-44444444-7777\6666--------------------------|
pm|......... ........ ........ .... ....

 e|---------------------------------------------------------------|
 B|---------------------------------------------------------------|
 G|---------------------------------------------------------------|
 D|--------------------------------------<6>----------------------|
 A|-22222222-44444444-66666666-99999999---------------------------|
 E|-00000000-22222222-44444444-77777777---------------------------|
pm|......... ........ ........ ........  p.h.

Riff
 e|---------------------------------------------------------------|
 B|---------------------------------------------------------------|
 G|---------------------------------------------------------------|
 D|----6------------------6---------------------------------------|
 A|---------------------------------------------------------------|
 E|--4---4--4-2h4p2h4---4---4--4--<7>-----------------------------|
                                  p.h.

 e|---------------------------------------------------------------|
 B|---------------------------------------------------------------|
 G|---------------------------------------------------------------|
 D|----6------------------6------------------4h6------------------|
 A|----------------------------------2h4-4h6----------------------|
 E|--4---4--4-2h4p2h4---4---4--4--2h4-----------------------------|

Chorus
 e|---------------------------------------------------------------|
 B|---------------------------------------------------------------|
 G|---------------------------------------------------------------|
 D|---------------------------------------------------------------|
 A|-22222222-44444444-66666666-9999-9999--------------------------|
 E|-00000000-22222222-44444444-7777\6666--------------------------|
pm|......... ........ ........ .... ....

 e|---------------------------------------------------------------|
 B|---------------------------------------------------------------|
 G|---------------------------------------------------------------|
 D|---------------------------------------------------------------|
 A|-22222222-44444444-66666666-99999999---------------------------|
 E|-00000000-22222222-44444444-77777777---------------------------|
pm|......... ........ ........ ........

solo thing
 e|----16-14---14-------------------------------------------------|
 B|---------16----16-14--16--14----14-16-14-----------------------|
 G|-13--------------------------16----------16-13-----------------|
 D|---------------------------------------------------------------|
 A|---------------------------------------------------------------|
 E|---------------------------------------------------------------|

 e|---------------------------------------------------------------|
 B|---------------------------------------------------------------|
 G|--16-16-16-16-16-16-15-15-13-13-13-11-11-11--------------------|
 D|---------------------------------------------------------------|
 A|---------------------------------------------------------------|
 E|---------------------------------------------------------------|

 e|---------------------------------------------------------------|
 B|---------------------------------------------------------------|
 G|--16-16-16-16-16-16-15-15-13-13-13-11-11-11--------------------|
 D|---------------------------------------------------------------|
 A|---------------------------------------------------------------|
 E|---------------------------------------------------------------|

quiet for 2 bars

Chorus!
 e|---------------------------------------------------------------|
 B|---------------------------------------------------------------|
 G|---------------------------------------------------------------|
 D|---------------------------------------------------------------|
 A|-22222222-44444444-66666666-9999-9999--------------------------|
 E|-00000000-22222222-44444444-7777\6666--------------------------|
pm|......... ........ ........ .... ....

 e|---------------------------------------------------------------|
 B|---------------------------------------------------------------|
 G|---------------------------------------------------------------|
 D|---------------------------------------------------------------|
 A|-22222222-44444-\\\\\\-----------------------------------------|
 E|-00000000-22222-\\\\\\-----------------------------------------|
pm|......... ..... SLIDE DOWN

 e|---------------------------------------------------------------|
 B|---------------------------------------------------------------|
 G|---------------------------------------------------------------|
 D|---------------------------------------------------------------|
 A|-22222222-44444444-66666666-9999-9999--------------------------|
 E|-00000000-22222222-44444444-7777\6666--------------------------|
pm|......... ........ ........ .... ....

 e|---------------------------------------------------------------|
 B|---------------------------------------------------------------|
 G|---------------------------------------------------------------|
 D|---------------------------------------------------------------|
 A|-22222222-44444444-66666666-99999999---------------------------|
 E|-00000000-22222222-44444444-77777777---------------------------|
pm|......... ........ ........ ........

Outro (not sure at all on this)
 e|---------------------------------------------------------------|
 B|---------------------------------------------------------------|
 G|---------------------------------------------------------------|
 D|----6--------------------------6-------------------------------|
 A|---------------------------------------------------------------|
 E|--4---4--4-t7p4-t9p4-t10p4---4---4-4-t7p4-t9p4-t10p4-----------|

 e|---------------------------------------------------------------|
 B|---------------------------------------------------------------|
 G|---------------------------------------------------------------|
 D|----6--------------------------6-------------------------------|
 A|---------------------------------------------------------------|
 E|--4---4--4-t7p4-t9p4-t10p4---4---4-4-t7p4-t9p4-t10p4-----------|

 e|---------------------------------------------------------------|
 B|---------------------------------------------------------------|
 G|---------------------------------------------------------------|
 D|----6----------------------------------------------------------|
 A|---------------------------t11---------------------------------|
 E|--4---4--4-t7p4-t9p4-t10p4-------------------------------------|
                              ^^ hold this note

Nice ;)
comments
We did not receive enough feedback on this tab! Please rate:
print report bad tab
1 2 3 4 5
I want to post or [tab]
guest
You may want to rate the tab now too:
select rating
Please do not post tabs as comments. Select "correction" instead!