Oops, an error
Loading. Please wait.

Amaze Us Bass Tab

version 1
version 1

Whole song

Interactive

1,292 views 6 this week
no commentswrite comment
1 2 3 4 5
please rate
add to favorites
launch autoscroll
font size
0
reset
guitar tuner
Autoscroll
slow
fast
+/-
esc
set tempo
stop
Help us to improve Ultimate-Guitar.com Take our survey!
×
Author
Hey this one is a tricky one lots of fiddly bits
Not 100% accurate and a few notes missing from here n there but I'm sure you'll work em out
It's the best I could come up with
Enjoy

Bass Tab
Song -Amaze Us
Band - Fightstar
Tuning - Drop D
E-mail - Bigupyourself13@hotmail.com

Intro

(Guitar Starts)

Then

G|-----------------------------------------|
D|-----------------------------------------|
A|--------------------------3h5-3h5-2h3p2--|
D|-000000000000000000000000--------------3-|

G|---------------------------------------------------|
D|---------------------------------------------------|
A|------------3-4-5------------------3h5-3h5 2h3p2---|
D|-0--0-3-2-0-------3-2-0-xxxx-3-2-0--------------3--|


G|----------------------------------|
D|----------------------------------|
A|-----------3-4-5--------5555-7777-|
D|-0--0-3-2-0------3-2-0------------|

Verse

G|-----------------------------------------------------------------------|
D|-----------------------------------------------------------------------|
A|-----------------------------------------------------------------------|    X2
D|-0~-0~-0~-0~-9~-9~-9~-12~-8~-8~-s10-8~--3-2-0--3-2-0--3-2-0--3-2-0-----|

Pre Chorus

G|----------------------------------------------|
D|-0000000000000000-88888888-1010101010101010---|
A|----------------------------------------------|  X2
D|----------------------------------------------|

Chorus

G|---------------------------------------|
D|---------------------------------------|
A|---------------------------------------|   X4
D|-0-0-0-0-0-0-0-0--8-8-8-8--10-10-10-10-|

Interlude

G|--------------------------------------------------------------|
D|--------------------------------------------------------------|
A|-5--3-0-3-3-3---5--3-0-3-3-3---5--3-0-3p0-3-3---5--3-0-3-3-3--|
D|---------0-0-0----------3-5-6------------0-0-0----------3-5-6-|

G|------------------|
D|------------------|
A|------------------|
D|-6666666666666666-

Verse Riff X2

Pre Chorus X3

Then

G|--------------------------------------------|
D|-0000000000000000-88888888-1313131313131313-|
A|--------------------------------------------|
D|--------------------------------------------|

Chorus Riff X2

Interlude X1

Small Guitar Part

Bridge

G|---------------------------------------------------------------------------------|
D|---------------------------------------5-3p0-3p0---------------------------------|
A|------------------------------------------------3--------------------------------|
D|-6--0--3-2-0-3-2-0-3-2-0--6--0--3-2-0--------------------------------------------|

G|--------------------------------------------------------------------------------|
D|--------------------------------------5--3-0------------------------------------|
A|--------------------------------------------3-5p3-------------------------------|
D|-6--0--3-2-0-3-2-0-3-2-0--6--0--3-2-0------------5p3----------------------------|

Final Chorus

(First Vocals and Piano)

Bass and drums enter

G|------------------------------------------|
D|------------------------------------------|
A|------------------------------------------|
D|-00000000-88888888-00000000-8888-10101010-|

Slightly Heavier Part

G|-------------------|
D|-------------------|
A|-------------------|
D|-33333333-88888888-|

Then

G|-------------------|
D|-------------------|
A|-------------------|   X3
D|-00000000-88888888-|

Outro

G|-------------------------|
D|-------------------------|
A|-------------3-4-5-------|
D|-0--0-3-2-0--------3-2-0-|


Enjoy Guys

Like I said I'm not 100% sure on certain stuff but it's as close as I could get it

Lyrics

I know you've got choices to make
I hope you make them well
It only takes a click of the wrist
I hope you live to tell

We cannot build upon over what you are without..

And you,
You amaze us all,
With the hope that you bring,
It could save us all,
From the war.

I know we've got changes to make
I hope we'll see this through
It only takes a slip of the fist
It ends with me and you

We cannot build upon over what you are without the sin
To cross the five stone

And you,
You amaze us all,
With the hope that you bring,
It could save us all,
From the war.

It all ends with you

You,
You amaze us all,
With the hope that you bring,
It could save us all,
From the war.

And you,
You amaze us all,
With the hope that you bring,
It could save us all,
From the war.
Suggest correction
What's this?
You can suggest a correction to this tab. Community and Mods will review your correction and vote to approve or reject it.
comments
We did not receive enough feedback on this tab! Please rate:
print report bad tab
1 2 3 4 5
guest
You may want to rate the tab now too:
select rating
Please do not post tabs as comments. Select "correction" instead!