Oops, an error
Loading. Please wait.

Amethyst Bass Tab

version 1
version 1

Whole song

Interactive

1,162 views 1 this week
no commentswrite comment
1 2 3 4 5
excellent!
x 3
add to favorites
launch autoscroll
font size
0
reset
guitar tuner
Tab Pro tools
  • play this tab
  • loop segment
  • change instrument
  • show fretboard
  • metronome
Autoscroll
slow
fast
+/-
esc
set tempo
stop
Contributor
Difficulty
HGF
novice
by HGF's Héctor,  ESP_bender-a.C.-@hotmail.com for anything

Standard tunning version
-G
-d
-a
-e


Intro (quite sure)
 ---12--12-12/14\-9---9-9h10---------12/14\-9-|
 ---------------------------------------------|
 0--------------------------------------------|
 -----------------------------8---------------|

 end for the Intro
 --------|
 --------|
 --------|
 8-8-7777


Verse (close enough)
 -------------------------------------------------------|
 -----------------------------10------10---------10-----|
 ------------------------------10---10-10---------10----|
 55555555555555555555588888888---888-----88888888---888-|
[10s in D & A strings, sometimes are random]
_
 -----------------------------------------------------|
 -----------------------------------------------------|
 1010101010h121212121210h121212121210h1212121212121212
 -----------------------------------------------------
[10s & 12s]
_
end of verse
 ---------------------|
 ---------------------|
 ---------------------|
 555555555555555555555

Pre-Chorus
 -------------------------------------------------------------     xxxx-|
 -------------------------------------------------------------     xxxx-|
 -------------------------------------------------------------     xxxx-|
 333333333331111-55555555555555-3333333333333-1111111111111111...  xxxx-|
 [1s]


Chorus (figure out the pattern)
 -----------------------------------------------------------|
 -----------------------------------------------------------|
 -----------------------------------------------------------|
 555555555555/-121212121212121313131313131313888888887777777
[12s & 13s]
_
 -----------------------------------------------------------|
 -----------------------------------------------------------|
 -----------------------------------------------------------|
 11111111111/-5555555555555551313131313131313888888877777777
[1s & then 13s]
_
 -------------------------------------|
 -------------------------------------|
 -------------------------------------|
 111111111111111////131313131313131313
[1s & then 13s]

Bridge
 -----------------|  only   |-----------------|
 -----------------|  sounds |-----------------|
 -----------------|  one    |-----------------|
 5555-x5555-x5555-|  guitar |5555-x5555-x5555-|
_
 -----------------------------------------|
 -----------------------------------------|
 12\11-11-11-11\10-10-10-10\9-9-9-9\8-8-8-|
 -----------------------------------------|
_
 -----------------------------------------------------|
 -----------------------------------------------------|
 -----------------------------------------------------|
 5555-x5555-x5555-1111-x1111-x1111-5555-x5555-x5555-1-|


Ending [I think bass sounds, but low]
 --------------------------------------------|
 --------------------------------------------|
 --------------------------------------------|
 5-------------8------------13-------------5-|

Intro x2 + its end
verse x2 + its end
chorus
Intro + its end
verse x2 + its end
chorus   bridge   ending


easy...
¡desde España! con amor...
comments
We did not receive enough feedback on this tab! Please rate:
print report bad tab
1 2 3 4 5
I want to post or [tab]
guest
You may want to rate the tab now too:
select rating
Please do not post tabs as comments. Select "correction" instead!