Oops, an error
Loading. Please wait.

Amethyst Tab

version 1
version 1

Whole song

Interactive

1,965 views 12 this week
no commentswrite comment
1 2 3 4 5
accurate
x 1
add to favorites
launch autoscroll
font size
0
reset
how to read this tab
guitar tuner
Tab Pro tools
  • play this tab
  • loop segment
  • change instrument
  • show fretboard
  • metronome
Autoscroll
slow
fast
+/-
esc
set tempo
stop
Contributor
Tuning
D A D G B E
tuning-drop d

chords:
  Am  C  F-M7  G  F5  A5  
 F5(2)  C5  G5/B
|-0---0--0----------------------------------|
|-1---1--1-----0----------------------------|
|-2---0--2-----0--5-------9---10------------|
|-2---2--3-----0--3---7---9---10-----10-12--|
|-0---3--3-----x--3---7---7----8-----10-10--|
|--------------5--3---7--------------10--9--|

intro
|-3p0-1p0-----3p0-1p0-----3p0-1p0-----3p0-1p0------|
|----0---1h3p1---0---1h3p1---0---1h3p1---0---1h3p1-|
|--------------------------------------------------|
|--------------------------------------------------| 2 times
|--------------------------------------------------|
|--------------------------------------------------|

|-3---1--0----------3---1--0--------|
|----1--1---1h3p1------1--1---1h3p1-|
|-----------------------------------|
|-----------------------------------|
|-----------------------------------|
|-----------------------------------|

|-3p0-1p0-----3p0-1p0-----3p0-1p0-----3p0-1p0------|
|----0---1h3p1---0---1h3p1---0---1h3p1---0---1h3p1-|
|--------------------------------------------------|
|--------------------------------------------------|
|--------------------------------------------------|
|--------------------------------------------------|

|-3---1--0----------3---1--0--------|
|----1--1---1h3p1------1--1---3---1-|
|-----------------------------------|
|-----------------------------------|
|-----------------------------------|
|-----------------------------------|


Am                    C
she smokes like an amethyst,
                             F-M7
she's moving her way through my skin,
          Am                             C
she moves me, cause east is the way i'll go,
                F-M7           Am
nobody seems to notice, how i feel.
  G                                   F5        Am
|-15-15-15-15-15-15-15-15-13-13-13-12-12-12-----17-17-17-17-17-17-17-17-|
|------------------------------------------13-13------------------------|
|-----------------------------------------------------------------------|
|-----------------------------------------------------------------------|
|-----------------------------------------------------------------------|
|-----------------------------------------------------------------------|
                        G
|-12-12-12--------------15-15-15-15-15-15-15-17-17-17-17-17-17-17-17-17-|
|---------13-13-13-13-13------------------------------------------------|
|-----------------------------------------------------------------------|
|-----------------------------------------------------------------------|
|-----------------------------------------------------------------------|
|-----------------------------------------------------------------------|
  F5
|-19-19-19-19-19-19-19-20-20-20-20-20-20-20-20-20-20-|
|----------------------------------------------------|
|----------------------------------------------------|
|----------------------------------------------------|
|----------------------------------------------------|
|----------------------------------------------------|

A5             E5
keep all the lights off,
                F5(2)
and i'll try to kill our pass time,
 C5     G5/B      F5
just to find your heart,
               A5
please don't ignore me,
             F5(2)
or i'll just fall asleep,
    C5       G5/B       F5
and wake up when you're gone.

|-3p0-1p0-----3p0-1p0-----3p0-1p0-----3p0-1p0------|
|----0---1h3p1---0---1h3p1---0---1h3p1---0---1h3p1-|
|--------------------------------------------------|
|--------------------------------------------------|
|--------------------------------------------------|
|--------------------------------------------------|

|-3---1--0----------3---1--0--------|
|----1--1---1h3p1------1--1---3---1-|
|-----------------------------------|
|-----------------------------------|
|-----------------------------------|
|-----------------------------------|

Am             C
this body only needs,
                     F-M7
to learn to feel the problem,
       Am                              C
disappear, i froze with those plastic eyes,
                    F-M7              Am
cutting loose from upon this disguise.

  G                                   F5        Am
|-15-15-15-15-15-15-15-15-13-13-13-12-12-12-----17-17-17-17-17-17-17-17-|
|------------------------------------------13-13------------------------|
|-----------------------------------------------------------------------|
|-----------------------------------------------------------------------|
|-----------------------------------------------------------------------|
|-----------------------------------------------------------------------|
                        G
|-12-12-12--------------15-15-15-15-15-15-15-17-17-17-17-17-17-17-17-17-|
|---------13-13-13-13-13------------------------------------------------|
|-----------------------------------------------------------------------|
|-----------------------------------------------------------------------|
|-----------------------------------------------------------------------|
|-----------------------------------------------------------------------|
  F5
|-19-19-19-19-19-19-19-20-20-20-20-20-20-20-20-20-20-|
|----------------------------------------------------|
|----------------------------------------------------|
|----------------------------------------------------|
|----------------------------------------------------|
|----------------------------------------------------|

A5             E5
keep all the lights off,
                F5(2)
and i'll try to kill our pass time,
 C5     G5/B      F5
just to find your heart,
               A5
please don't ignore me,
             F5(2)
or i'll just fall asleep,
    C5       G5/B       F5
and wake up when you're gone.

end riff
|--------------------------------------------------------------|
|--------------------------------------------------------------|
|--------------------------------------------------------------|
|-7-7-7-7---7-7-7-7-7---7-7-7-7\3-3-3-3---3-3-3-3-3---3-3-3-3--|
|-7-7-7-7---7-7-7-7-7---7-7-7-7\3-3-3-3---3-3-3-3-3---3-3-3-3--|
|-7-7-7-7---7-7-7-7-7---7-7-7-7\3-3-3-3---3-3-3-3-3---3-3-3-3--|

|-------------------------------|
|-------------------------------|
|-------------------------------|
|-7-7-7-7---7-7-7-7-7---7-7-7-7-|
|-7-7-7-7---7-7-7-7-7---7-7-7-7-|
|-7-7-7-7---7-7-7-7-7---7-7-7-7-|

|--------------------------------------------------------------|
|--------------------------------------------------------------|
|--------------------------------------------------------------|
|-7-7-7-7---7-7-7-7-7---7-7-7-7\3-3-3-3---3-3-3-3-3---3-3-3-3--|
|-7-7-7-7---7-7-7-7-7---7-7-7-7\3-3-3-3---3-3-3-3-3---3-3-3-3--|
|-7-7-7-7---7-7-7-7-7---7-7-7-7\3-3-3-3---3-3-3-3-3---3-3-3-3--|

|---------------------------------|
|---------------------------------|
|---------------------------------|
|-7-7-7-7---7-7-7-7-7---7-7-7-7\3-|
|-7-7-7-7---7-7-7-7-7---7-7-7-7\3-|
|-7-7-7-7---7-7-7-7-7---7-7-7-7\3-|

Am                      C
she smokes like an amethyst,
                             F-M7
she's moving her way through my skin.

|-0
|-1
|-2
|-2
|-0
|--

end.
comments
We did not receive enough feedback on this tab! Please rate:
print report bad tab
1 2 3 4 5
I want to post or [tab]
guest
You may want to rate the tab now too:
select rating
Please do not post tabs as comments. Select "correction" instead!