Oops, an error
Loading. Please wait.

Amethyst Tab

version 3
version 3

Whole song

Interactive

2,321 views 1 this week
5 commentsread comments
1 2 3 4 5
accurate
x 6
add to favorites
launch autoscroll
font size
0
reset
how to read this tab
guitar tuner
Tab Pro tools
  • play this tab
  • loop segment
  • change instrument
  • show fretboard
  • metronome
×
Best way to learn
"Amethyst"
Autoscroll
slow
fast
+/-
esc
set tempo
stop
Contributor
Tuning: E - ( E/A/D/G/B/e )
Effects: A little delay

p = pull
h = hammer
/ = slide up
\\ = slide down
~ = let ring
X\ = scratch strings with pick starting at bridge and moving toward head
c = continueous picking/strumming
m = mute by holding fingers on the strings above the frets but not pushing down

-=> 1st Guitar Part - Charlie Simpson <=-

=>INTRO<=
e |-3p0-0-1p0-------3p0-0-1p0-------|-3p0-0-1p0-------3p0-0-1p0-------|
B |-----------1-3p1-----------1-3p1-|-----------1-3p1-----------1-3p1-|
G |---------------------------------|---------------------------------|
D |---------------------------------|---------------------------------|
A |---------------------------------|---------------------------------|
E |---------------------------------|---------------------------------|x2

=>BREAK<=
e |--3--1--0------3--1--0--------|
B |----1--1--1~-----1--1--1~-----|
G |------------------------------|
D |------------------------------|
A |------------------------------|
E |------------------------------|

=>INTRO<=
e |-3p0-0-1p0-------3p0-0-1p0-------|-3p0-0-1p0-------3p0-0-1p0-------|
B |-----------1-3p1-----------1-3p1-|-----------1-3p1-----------1-3p1-|
G |---------------------------------|---------------------------------|
D |---------------------------------|---------------------------------|
A |---------------------------------|---------------------------------|
E |---------------------------------|---------------------------------|x1

=>BREAK<=
e |--3--1--0------3--1--0---------|
B |----1--1--1~-----1--1--3-1h3p1-|
G |-------------------------------|
D |-------------------------------|
A |-------------------------------|
E |-------------------------------|


=>VERSE<=
e |-------------------------------------------------------------------------|
B |-----------------------5h6p5h6p5h6p5~------------------------------------|
G |-------------------------------------------------------------------------|
D |-------------------------------------------------------------------------|
A |-------------------------------------------------------------------------|
E |-------------------------------------------------------------------------|
She smokes like an amethyst...

=>VERSE<=
e |-------------------------------------------------------------------------|
B |-------------------------------------------------------------------------|
G |-------------------------------------------------------------------------|
D |-------------------------------------------------------------------------|
A |---------------------------XX\\\\\\\\\\\\\\\\\\\\\\\\\\\\\\\\\\\XX-------|
E |---------------------------XX\\\\\\\\\\\\\\\\\\\\\\\\\\\\\\\\\\\xx-------|
She's moving away through my skin... She moves me...

=>VERSE<=
e |------------------------15c---------13c----12c---------------------------|
B |-------------------------------------------------------15c----13c--------|
G |-------------------------------------------------------------------------|
D |-------------------------------------------------------------------------|
A |-------------------------------------------------------------------------|
E |-------------------------------------------------------------------------|Cause East 
the way i go...


=>PRE CHORUS<=
e |---15c---13c-12c-----17c---12c-------15c--17c--19c--20c~----|
B |-----------------13c-----------13c--------------------------|
G |------------------------------------------------------------|
D |------------------------------------------------------------|
A |------------------------------------------------------------|
E |------------------------------------------------------------|


=>CHORUS<=
e |----|------------------------|-------------------|----|
B |----|------------------------|-------------------|----|
G |----|-----9---10-------------|-------------------|----|
D |-7m-|-7---9---10---10-9------|-7---2---3---10-9--|-7c-|
A |-7m-|-7---7---8----10-9------|-7---2---3---10-9--|-5c-|
E |-5m-|-5------------8--7------|-5---0---1---8--7--|-5c-|
Keep all the lights... Please don't...


=>INTRO<=
e |-3p0-0-1p0-------3p0-0-1p0-------|-3p0-0-1p0-------3p0-0-1p0-------|
B |-----------1-3p1-----------1-3p1-|-----------1-3p1-----------1-3p1-|
G |---------------------------------|---------------------------------|
D |---------------------------------|---------------------------------|
A |---------------------------------|---------------------------------|
E |---------------------------------|---------------------------------|x1


=>BREAK<=
e |--3--1--0------3--1--0---------|
B |----1--1--1~-----1--1--3-1h3p1-|
G |-------------------------------|
D |-------------------------------|
A |-------------------------------|
E |-------------------------------|


=>VERSE<=
e |-------------------------------------------------------------------------|
B |-----------------------5h6p5h6p5h6p5~------------------------------------|
G |-------------------------------------------------------------------------|
D |-------------------------------------------------------------------------|
A |-------------------------------------------------------------------------|
E |-------------------------------------------------------------------------|
This body only needs...

=>VERSE<=
e |-------------------------------------------------------------------------|
B |-------------------------------------------------------------------------|
G |-------------------------------------------------------------------------|
D |-------------------------------------------------------------------------|
A |---------------------------XX\\\\\\\\\\\\\\\\\\\\\\\\\\\\\\\\\\\XX-------|
E |---------------------------XX\\\\\\\\\\\\\\\\\\\\\\\\\\\\\\\\\\\xx-------|
To learn to feel the problem... Disappear...


|------------------------------------|
|>>I froze with those plastic eyes...|
|------------------------------------|

=>VERSE<=
e |-------------------------------------------------------------------------|
B |-------------------------------------------------------------------------|
G |-------------------------------------------------------------------------|
D |-------------------------------------------------------------------------|
A |---------------------------XX\\\\\\\\\\\\\\\\\\\\\\\\\\\\\\\\\\\XX-------|
E |---------------------------XX\\\\\\\\\\\\\\\\\\\\\\\\\\\\\\\\\\\xx-------|
Cutting loose from... Upon this disquise...


=>PRE CHORUS<=
e |---15c---13c-12c-----17c---12c-------15c--17c--19c--20c~----|
B |-----------------13c-----------13c--------------------------|
G |------------------------------------------------------------|
D |------------------------------------------------------------|
A |------------------------------------------------------------|
E |------------------------------------------------------------|


=>CHORUS<=
e |----|------------------------|-------------------|----|
B |----|------------------------|-------------------|----|
G |----|-----9---10-------------|-------------------|----|
D |-7m-|-7---9---10---10-9------|-7---2---3---10-9--|-7c-|
A |-7m-|-7---7---8----10-9------|-7---2---3---10-9--|-5c-|
E |-5m-|-5------------8--7------|-5---0---1---8--7--|-5c-|
Keep all the lights... Please don't...


=>BRIDGE<=
e |------------------------|------------------------|
B |------------------------|------------------------|
G |------------------------|----------REST----------|
D |-7777-7m--7777-7m--7777-|------(2nd Guitar)------|
A |-7777-7m--7777-7m--7777-|------------------------|
E |-5555-5m--5555-5m--5555-|------------------------|

=>BRIDGE<=
e |------------------------|------------------------|
B |------------------------|------------------------|
G |------------------------|----------REST----------|
D |-7777-7m--7777-7m--7777-|---------(Bass)---------|
A |-7777-7m--7777-7m--7777-|------------------------|
E |-5555-5m--5555-5m--5555-|------------------------|

=>BRIDGE<=
e |------------------------|------------------------|
B |------------------------|------------------------|
G |------------------------|------------------------|
D |-7777-7m--7777-7m--7777-|-3333-3m--3333-3m--3333-|
A |-7777-7m--7777-7m--7777-|-3333-3m--3333-3m--3333-|
E |-5555-5m--5555-5m--5555-|-1111-1m--1111-1m--1111-|

=>BRIDGE<=
e |------------------------|------------------------|
B |------------------------|------------------------|
G |------------------------|------------------------|
D |-7777-7m--7777-7m--7777-|--3~~~------------------|
A |-7777-7m--7777-7m--7777-|--3~~~------------------|
E |-5555-5m--5555-5m--5555-|--1~~~------------------|


=>OUTRO<=
e |------------------------------|
B |------------------------------|
G |-------------REST-------------|
A |---------(2nd Guitar)---------|
D |------------------------------|
E |------------------------------|
She Smokes like an amethyst...

i will give yous the second guitar part as soon as i work it out!
comments
print report bad tab
5 comments total. Showing first comments.
0 reply
Devastate wrote on May 24 2005, 12:00 am

actually thats my tab...

0 reply
Simon Acreman wrote on June 5 2006, 10:14 am

isn't that the one from fightstar online?

0 reply
Devastate wrote on June 5 2006, 02:16 pm

Yes.. IE: Mine. I co-own fightstaronline.

I want to post or [tab]
guest
You may want to rate the tab now too:
select rating
Please do not post tabs as comments. Select "correction" instead!