Oops, an error
Loading. Please wait.

Breaking The Law Bass Tab

version 1
version 1

Whole song

Interactive

957 views 1 this week
no commentswrite comment
1 2 3 4 5
please rate
add to favorites
launch autoscroll
font size
0
reset
guitar tuner
Tab Pro tools
  • play this tab
  • loop segment
  • change instrument
  • show fretboard
  • metronome
×
Best way to learn
"Breaking The Law"
Autoscroll
slow
fast
+/-
esc
set tempo
stop
Contributor
Difficulty
novice
-----------------------------------------------------------------------------
		    Breaking The Law (Cover) - Fightstar
-----------------------------------------------------------------------------

Song: Breaking The Law (Cover)
Band: Fightstar
Album: Kerrang! Higher Voltage and We Apologise For Nothing B-side
Originally By: Judas Priest
Tabbed By : Benji James

Tuning: C# G# C# F# (Half a step down)

Hello there, I did a Guitar Pro version of this song, so for the people who want to 
this song, and haven't got Guitar Pro, I did this tab. Enjoy:

F#|-----------------------------------------------------------------------|
C#|-----------------------------------------------------------------------|
G#|--------------------[REST-FOR-DRUM-INTRO]------------------------------|
C#|-----------------------------------------------------------------------|

INTRO (0:05)                           (0:10)
F#|-----------------|-----------------|-----------------|-----------------|
C#|-----------------|-----------------|-----------------|-----------------|
G#|-----------------|-----------------|-----------------|-----------------|
C#|-7-7-7-7-7-7-7-7-|-3-3-3-3-3-3-3-3-|-7-7---7-7---7-7-|-3-3---3-3---3-3-|

VERSE (0:21)
F#|-----------------|-----------------|-----------------|-----------------|
C#|-----------------|-----------------|-----------------|-----------------|
G#|-----------------|-----------------|-----------------|-----------------|
C#|-7-7-7-7-7-7-7-7-|-3-3-3-3-3-3-3-3-|-7-7-7-7-7-7-7-7-|-3-3-3-3-3-3-3-3-|

PRE-CHORUS (0:31)
F#|-----------------|-----------------|-----------------|-----------------|
C#|-----------------|-----------------|-----------------|-----------------|
G#|-----------------|-----------------|-3-3-3-3-3-3-3-3-|-3-3-3-3-3-3-3-3-|
C#|-3-3-3-3-3-3-3-3-|-3-3-3-3-3-3-3-3-|-----------------|-----------------|

F#|-----------------|-----------------|-----------------|-----------------|
C#|-----------------|-----------------|-----------------|-----------------|
G#|-----------------|-----------------|-----------------|-----------------|
C#|-3-3-3-3-3-3-3-3-|-3-3-3-3-3-3-3-3-|-2-2-2-2-2-2-2-2-|-2---------------|

PRE-CHORUS 2 (0:42)
F#|-----------------------|-----------------------|
C#|-----------------------|-----------------------|
G#|-----------------------|-----------------------|
C#|-6-6-6-6--7-7-7--7-7-7-|-6-6-6-6--7-7-7--7-7-7-|

F#|-----------------------|-----------------------|
C#|-----------------------|-----------------------|
G#|-----------------------|-----------------------|
C#|-6-6-6-6--7-7-7--7-7-7-|-6-6-6-6--2------1-----|

CHORUS (0:52)
F#|--------------------------|---------------------------|
C#|--------------------------|---------------------------|
G#|--------------------------|---------------------------|
C#|-0-0-0-0-1-1-1-1--1-1-1-1-|-0-0-0-0--1-1-1-1--1-1-1-1-|

F#|--------------------------|---------------------------|
C#|--------------------------|---------------------------|
G#|--------------------------|---------------------------|
C#|-0-0-0-0-1-1-1-1--1-1-1-1-|-0-0-0-0--1-1-1-1--1-1-1-1-|

VERSE (1:02)
F#|-----------------|-----------------|-----------------|-----------------|
C#|-----------------|-----------------|-----------------|-----------------|
G#|-----------------|-----------------|-----------------|-----------------|
C#|-7-7-7-7-7-7-7-7-|-3-3-3-3-3-3-3-3-|-7-7-7-7-7-7-7-7-|-3-3-3-3-3-3-3-3-|

PRE-CHORUS (1:13)
F#|-----------------|-----------------|-----------------|-----------------|
C#|-----------------|-----------------|-----------------|-----------------|
G#|-----------------|-----------------|-3-3-3-3-3-3-3-3-|-3-3-3-3-3-3-3-3-|
C#|-3-3-3-3-3-3-3-3-|-3-3-3-3-3-3-3-3-|-----------------|-----------------|

F#|-----------------|-----------------|-----------------|-----------------|
C#|-----------------|-----------------|-----------------|-----------------|
G#|-----------------|-----------------|-----------------|-----------------|
C#|-3-3-3-3-3-3-3-3-|-3-3-3-3-3-3-3-3-|-2-2-2-2-2-2-2-2-|-2---------------|

PRE-CHORUS 2 (1:23)
F#|-----------------------|-----------------------|
C#|-----------------------|-----------------------|
G#|-----------------------|-----------------------|
C#|-6-6-6-6--7-7-7--7-7-7-|-6-6-6-6--7-7-7--7-7-7-|

F#|-----------------------|-----------------------|
C#|-----------------------|-----------------------|
G#|-----------------------|-----------------------|
C#|-6-6-6-6--7-7-7--7-7-7-|-6-6-6-6--2------1-----|

CHORUS (1:34)
F#|--------------------------|---------------------------|
C#|--------------------------|---------------------------|
G#|--------------------------|---------------------------|
C#|-0-0-0-0-1-1-1-1--1-1-1-1-|-0-0-0-0--1-1-1-1--1-1-1-1-|

F#|--------------------------|---------------------------|
C#|--------------------------|---------------------------|
G#|--------------------------|---------------------------|
C#|-0-0-0-0-1-1-1-1--1-1-1-1-|-0-0-0-0--1-1-1-1--1-1-1-1-|

BRIDGE (1:44)
F#|-------------------------------------------------------------------|
C#|-------------------------------------------------------------------|
G#|-------------------[REST-WHILE-DRUMS-PLAY]-------------------------|
C#|-------------------------------------------------------------------|

F#|----------|---------------------------|---------------------------|
C#|----------|---------------------------|---------------------------|
G#|----------|---------------------------|---------------------------|
C#|-2----1---|-1-1-1-1-2-1-1-1-1-1-1-2-2-|-1-1-1-1-2-1-1-1-1-1-1-2-2-|

ENDING (2:12)
F#|-------------------------------------------------------------------|
C#|-------------------------------------------------------------------|
G#|---------------[REST-WHILE-GUITAR-AND-DRUMS-PLAY]------------------|
C#|-------------------------------------------------------------------|

F#|---------------------------------|----------------------------------|
C#|---------------------------------|----------------------------------|
G#|---------------------------------|----------------------------------|
C#|-7-7-7-7-7-7-7-7-7-7-7-7-7-7-7-7-|-3-3-3-3-3-3-3-3-3-3-3-3-3-3-3-3--|

F#|---------------------------------|----------------------------------|
C#|---------------------------------|----------------------------------|
G#|---------------------------------|----------------------------------|
C#|-7-7-7-7-7-7-7-7-7-7-7-7-7-7-7-7-|-3-3-3-3-3-3-3-3-3-3-3-3-3-3-3-3--|

F#|---------------------------------|----------------------------------|
C#|---------------------------------|----------------------------------|
G#|---------------------------------|----------------------------------|
C#|-7-7-7-7-7-7-7-7-7-7-7-7-7-7-7-7-|-3-3-3-3-3-3-3-3-3-3-3-3-3-3-3-3--|

F#|---------------------------------|----------------------------------|
C#|---------------------------------|----------------------------------|
G#|---------------------------------|----------------------------------|
C#|-7-7-7-7-7-7-7-7-7-7-7-7-7-7-7-7-|-3-3-3-3-3-3-3-3-3-3-3-3-3-3-3-3--|

F#|---------------------------------|----------------------------------|
C#|---------------------------------|----------------------------------|
G#|---------------------------------|----------------------------------|
C#|-7-7-7-7-7-7-7-7-7-7-7-7-7-7-7-7-|-3-3-3-3-3-3-3-3-3-3-3-3-3-3-3-3--|

F#|---------------------------------|----------------------------------|
C#|---------------------------------|----------------------------------|
G#|---------------------------------|----------------------------------|
C#|-7-7-7-7-7-7-7-7-7-7-7-7-7-7-7-7-|-3-3-3-3-3-3-3-3-3-3-3-3-3-3-3-3--|

Thanx for reading. Please rate this and comment. Thank you.

==========================================================================
comments
We did not receive enough feedback on this tab! Please rate:
print report bad tab
1 2 3 4 5
I want to post or [tab]
guest
You may want to rate the tab now too:
select rating
Please do not post tabs as comments. Select "correction" instead!